Log in

One click and you are in

Login with Facebook Login with Google

Why sign up and log in

Guitar Tabs Explorer
Department Of Eagles guitar tabs for Phantom other

Guitar tabs with lyrics

Album: In Ear Park
By: Lukas K(cove (at) gmx.at)

I already saw some tabs, and since I'm an annoying perfectionist when it comes to
guitar tunings and playing the right chords. Here's my tab.
Tuning: A chord diagramD MajorD

I'll keep writing down the chords used above of the respective part.

353335
353333
353336
x4535x
x7868x

|--------5-5-3-3---------5-5-3-3---------5-5-3-3------5-3-3------------|
|--------3-3-3-6---------3-3-3-6---------3-3-3-6------3-3-6----5---8---|
|--------3-3-3-3---------3-3-3-3---------3-3-3-3------3-3-3----3---6---|
|--------3-3-3-3---------3-3-3-3---------3-3-3-3------3-3-3----5---8---|
|-5------5-5-5-5--5------5-5-5-5--5------5-5-5-5--5---5-5-5--4---7-----|
|---3-3--3-3-3-3----3-3--3-3-3-3----3-3--3-3-3-3----3-3-3-3------------|

8x0710x

|-------------------------------|
|----10-10--10-10--10-10--10-10-|
|----7--7---7--7---7--7---7--7--|
|----0--0---0--0---0--0---0--0--|
|-------------------------------|
|--8------8------8------8-------|

8x0710x
8x078x
7x058x
5x036x

repeat this part for verse

|------------------------------------------------------|
|----10-10--10-10--8-8--8-8--8-8--8-8--6-6---6-6-------|
|----7--7---7--7---7-7--7-7--5-5--5-5--3-3---3-3-------|
|----0--0---0--0---0-0--0-0--0-0--0-0--0-0---0-0-------|
|------------------------------------------------------|
|--8------8-------8----8----7----7----5----5-----------|

8x0710x
8x078x
7x058x
6x046x
5x046x >9>0

this is the bridge to the "so what would it take" part

|------------------------------------------------------|
|----10-10--10-10--8-8--8-8--8-8--8-8--6-6---6-6-------|
|----7--7---7--7---7-7--7-7--5-5--5-5--4-4---4-4-------|
|----0--0---0--0---0-0--0-0--0-0--0-0--0-0---0-0-------|
|------------------------------------------------------|
|--8------8-------8----8----7----7----6----5-----5>9---|

004532
003435 (variation: 003335)


|---2-2---2-2----5-5---5-5-5--|
|---3-3---3-3----3-3---3-3-3--|
|---5-5---5-5----4-4---4-3-4--|
|---4-4---4-4----3-3---3-3-3--|
|---0-0---0-0----0-0---0-0-0--|
|-0-0-0-0-0-0--0-0-0-0-0-0-0--|

353335
353333
353363
553335
553333
553363

before you come to the "my god in heaven" part, play this

|--------5-5-3-3-------5-5-3-3-----|
|--------3-3-3-6-------3-3-3-6-----|
|--------3-3-3-3-------3-3-3-3-----|
|--------3-3-3-3-------3-3-3-3-----|
|-5------5-5-5-5-------5-5-5-5-----|
|---3-3--3-3-3-3-3-505-5-5-5-5-----|

"my god in heaven..." part

0121211100
5x046x

just strum these two, you can also add some variations on those chords.
then

5x0460 (or 5x5460, whichever you prefer, i use 5x0460)
6x0460 (or 6x6460, same here)

|------------------------------------------------------|
|----------------6-6-6-6----6-6-6-6-6-6-6-6----6-6-6-6-|
|----------------4-4-4-4----4-4-4-4-4-4-4-4----4-4-4-4-|
|->9-9-9-9-9-----0-0-0-0----0-0-0-0-0-0-0-0----0-0-0-0-|
|------------------------------------------------------|
|->9-9-9-9-9-0-0-5-5-5-5>12-6-6-6-6-5-5-5-5>12-6-6-6-6-|


8x0710x
9x0710x

2 times

|-----------------------------------|
|----10-10--10-10----10-10---10-10--|
|----7--7---7--7-----7--7----7--7---|
|----0--0---0--0-----0--0----0--0---|
|-----------------------------------|
|--8------8------8-9-------9--------|

then finally

|--------5-5-3-3---------5-5-3-3---------5-5-3-3------5-3-3--------------|
|--------3-3-3-6---------3-3-3-6---------3-3-3-6------3-3-6----5---8---7-|
|--------3-3-3-3---------3-3-3-3---------3-3-3-3------3-3-3----3---6---5-|
|--------3-3-3-3---------3-3-3-3---------3-3-3-3------3-3-3----5---8---7-|
|-5------5-5-5-5--5------5-5-5-5--5------5-5-5-5--5---5-5-5--4---7-----0-|
|---3-3--3-3-3-3----3-3--3-3-3-3----3-3--3-3-3-3----3-3-3-3------------0-|

 ------------
|   FINISH   |
 ------------

have fun playing.

Almost there ...

Sign in to get your own page with links to favourite songs and more. You are just one click away...

Login with Facebook Login with Google