Log in

One click and you are in

Login with Facebook Login with Google

Why sign up and log in

Guitar Tabs Explorer
Dempsey Paul tabs for Ramona was a waitress

Guitar tabs

BAND WEBSITE: http://pauldempseymusic.com/new/home.html

RAMONA WAS A chord diagramA augmentedA WAITRESS by PAUL DEMPSEY from EVERYTHING IS TRUE (2009)

STANDARD TUNING

0:00 - Hit a Low A chord diagramE MajorE
VERSE
   0:06                            X2
e|-------------------------------------------------------------------------|
A chord diagramBB|-------------------------------------------------------------------------|
A chord diagramG+G|-------------------------------------------------------------------------|
A chord diagramD MajorD|--------7---7------------------11--11---------------2--2-----------2-2---|
A chord diagramA augmentedA|-----7---------7-----------11----------11---------2------2-------2-----2-|
A chord diagramE MajorE|-5-5--------------5---9-9------------------9--0-0----------0-0-0--------0|

  0:18
e|------------------------------------------------------------------------>
A chord diagramBB|------------------------------------------------------------------------>
A chord diagramG+G|------------------------------------------------------------------------>
A chord diagramD MajorD|-------7-7------------11-11------------9-9--------------14-14----------->
A chord diagramA augmentedA|-----7-----7-------11-------11-------9-----9---------14-------14-------->
A chord diagramE MajorE|-5-5---------5-9-9-------------9-7-7---------7-12-12-------------12----->
                              0:27
<-------------------------------------------------------------------|
<-------------------------------------------------------------------|
<-------------------------------------------------------------------|
<-------7-7-----------9-9-----------2-2-----------2-2---------------|
<-----7-----7-------9-----9-------2-----2-------2-----2-------------|
<-5-5---------5-7-7---------7-0-0---------0-0-0---------0-----------|

   0:30                          X2
e|-------------------------------------------------------------------------|
A chord diagramBB|-------------------------------------------------------------------------|
A chord diagramG+G|-------------------------------------------------------------------------|
A chord diagramD MajorD|--------7---7------------------11--11---------------2--2-----------2-2---|
A chord diagramA augmentedA|-----7---------7-----------11----------11---------2------2-------2-----2-|
A chord diagramE MajorE|-5-5--------------5---9-9------------------9--0-0----------0-0-0--------0|

  0:42
e|------------------------------------------------------------------------>
A chord diagramBB|------------------------------------------------------------------------>
A chord diagramG+G|------------------------------------------------------------------------>
A chord diagramD MajorD|-------7-7------------11-11------------9-9--------------14-14----------->
A chord diagramA augmentedA|-----7-----7-------11-------11-------9-----9---------14-------14-------->
A chord diagramE MajorE|-5-5---------5-9-9-------------9-7-7---------7-12-12-------------12----->

<-----------------------------|
<-----------------------------|
<-----------------------------|
<-------7-7-----------9-9-----|
<-----7-----7-------9-----9---|
<-5-5---------5-7-7---------7-|


CHORUS
 1.  I don't need       these arms      anymore
 2.  I don't need       this heard      now to love
e|---------------------------------------------------|
A chord diagramBB|---------------------------------------------------|
A chord diagramG+G|---------------------------------------------------|  X2 then....
A chord diagramD MajorD|--2------------------7--------------6--------------|
A chord diagramA augmentedA|--2------------------7--------------6--------------|
A chord diagramE MajorE|--0------------------5--------------4--------------|

       I don't need       these skin and bones  ah ah......
e|------------------------------------------------------------------|
A chord diagramBB|------------------------------------------------------------------|
A chord diagramG+G|------------------------------------------------------------------|
A chord diagramD MajorD|-2------------------7------------11-----------7--6--4----2--------|
A chord diagramA augmentedA|-2------------------7------------11-----------7--6--4----2--------|

Almost there ...

Sign in to get your own page with links to favourite songs and more. You are just one click away...

Login with Facebook Login with Google