Log in

One click and you are in

Login with Facebook Login with Google

Why sign up and log in

Guitar Tabs Explorer
Demiricous guitar tabs for To serve is to destroy

Guitar tabs

DEMIRICOUS
Track #9 off of One (Hellbound)
A chord diagramD MajorD standard


Intro
|---------------------------------|-----------------------------|
|---------------------------------|-----------------------------|
|---------------------------------|-----------------------------|
|---------------------------------|-8-8--7-7--6-6--5-5--4-4-3-3-|
|---------------------------------|-8-8--7-7--6-6--5-5--4-4-3-3-|
|-9-8-6-8-6-5-6-5-3-5-3-2-3-2-0-2-|-6-6--5-5--4-4--3-3--2-2-1-1-|
  . . . . . . . . . . . . . . . .   . .  . .  . .  . .  . . . .
Verse Riff
|-----------------------------------------------------------------|
|-----------------------------------------------------------------|
|-----------------------------------------------------------------|
|-----------------------------------------------------------------|
|-----------------------------------------------------------------|
|-0-0---0-0---0-0---0-0---0-0-0-0--0-0---0-0---0-0---0-0--3-1-0-1-|
                                                          . . . .

|---------------------------------------------------------|
|---------------------------------------------------------|
|---------------------------------------------------------|
|---------------------------------------------------------|
|---------------------------------------------------------|
|-0-0---0-0---0-0---0-0---0-0-0-0--0-1-0-3---0-1-0-4--3-1-|
                                   . . .     . . .         X2
When the lyrics kick in just play this same riff but with all power chords


Pre-Chorus
|-------------------------------------------------|
|-------------------------------------------------|
|-------------------------------------------------|
|-2-----9-8-(8)-----------------------------------|
|-2-----9-8-(8)-----------------------------------|
|-0-0-0-7-6-(6)---6-5-3-5-4-2-6-5-3-5-4-2-6-5-3-5-|
    . .           . . . . . . . . . . . . . . . .   X2

Chorus
|-----------------------------------------------------------------------|
|-----------------------------------------------------------------------|
|-----------------------------------------------------------------------|
|-2---------2---------2------5--6--5--3-5-6--2---------2---------2------|
|-2---2-2-2-2---2-2-2-2--2-2-5--6--5--3-5-6--2---2-2-2-2---2-2-2-2--2-2-|
|-0---0-0-0-0---0-0-0-0--0-0-3--4--3--1-3-4--0---0-0-0-0---0-0-0-0--0-0-|
      . . .     . . .    . .                     . . .     . . .    . .

|---------------------------------|
|---------------------------------|
|---------------------------------|
|---------------------------------|
|---------------------------------|
|-6-5-3-5-4-2-6-5-3-5-4-2-6-5-3-5-|
  . . . . . . . . . . . . . . . .   X2

Repeat Verse Riff
Repeat Pre-Chorus
Repeat Chorus
Repeat Intro

Best Riff EVER
|-----------------------------------------|
|-----------------------------------------|
|-----------------------------------------|
|---------------------------------43-----|
|-2-3-2---2---2-2-2-2-3-3-2-2-5---21-4/5-|
|-0-1-0---0---0-0-0-0-1-1-0-0-3-------2/3-|
              . . . . . . . .                  X8

Outro Bridge
|------------------------------------------|
|------------------------------------------|
|-9-9-9-9--6--5~-----9-9-9-9--6--12~---13~-|
|-x-x-x-x--x--5~-----x-x-x-x--x---x-----x--|
|-7-7-7-7--4--3~-----7-7-7-7--4--10~---11~-|
|------------------------------------------|
                                              X2

Solo (I guess)
|------------------------------------|
|------------------------------------|
|------------------------------------|
|-14~~~~----12--14-15-14-12-11b(12)--|
|------------------------------------|
|------------------------------------|

|------------------------------------|
|------------------------------------|
|---------------------------15~~~----|
|-14~~~~----12--14-15-14-12----------|
|------------------------------------|
|------------------------------------|
                                       X2

Repeat Outro Bridge
Repeat Best Riff EVER

Le' End!!!

I threw all this together in like 10 minutes so it's not 100% accurate but it's close enough.

Almost there ...

Sign in to get your own page with links to favourite songs and more. You are just one click away...

Login with Facebook Login with Google