Log in

One click and you are in

Login with Facebook Login with Google

Why sign up and log in

Guitar Tabs Explorer
Delta Sleep bass tabs for Sans soleil

Bass tabs

Tuning: Standard (E A D G)


Intro:

G|-15-------17-------13-------|
D|-15--x20--15--x10--15--x10--|X4
A|----------------------------|
E|----------------------------|

G|------------------------------------------------------------------|
D|-11-11-11-11-11-11-11-11-11-11-11-11-11-11-11-11-11-11-11-11------|
A|-9--9--9--9--9--9--9--9--9--9--9--9--9--9--9--9--9--9--9--9-------|
E|------------------------------------------------------------------|

G|------------------------------------------------------------------|
D|-15-15-15-15-15-15-15-15-15-15--13-13-13-13-13-13-15-15-11-11-----|
A|-13-13-13-13-13-13-13-13-13-13--11-11-11-11-11-11-11-11-11-11-----|
E|------------------------------------------------------------------|

G|------------------------------------------------------------------|
D|-11-11-11-11-11-11-11-11-11-11-11-11-11-11-11-11-11-11-11-11------|
A|-9--9--9--9--9--9--9--9--9--9--9--9--9--9--9--9--9--9--9--9-------|
E|------------------------------------------------------------------|

G|------------------------------------------------------------------|
D|-15-15-15-15-15-15-15-15-15-15--13-13-13-13-13-13-15-15-11-11--11-|
A|-13-13-13-13-13-13-13-13-13-13--11-11-11-11-11-11-11-11-11-11--9--|
E|------------------------------------------------------------------|


Section 2: Rest; come in 1:04

G|-------10-------------10-------------13--------------------------------------|
D|-----11---11--------11---11--------15---15--------13-----11------------------|
A|-9-------------9--------------13-------------11-----11h13--13p11-------------|
E|-----------------------------------------------------------------------------|

G|-------10-------------10-------------13------15--------15--------------------|
D|-----11---11--------11---11--------15---15--------13-----13/-----------------|
A|-9-------------9--------------13--------------------11-----------------------|
E|-----------------------------------------------------------------------------|

G|----------10-------------------------------------10--------------------------|
D|-----11--------11--------11---13------------11--------11--------11--------13-|
A|-9------------------13-------------11---9------------------13--------11------|
E|-----------------------------------------------------------------------------|

G|-------10-------------10-------------13--------------------------------------|
D|-----11---11--------11---11--------15---15--------13-----11------------------|
A|-9-------------9--------------13-------------11-----11h13--13p11-------------|
E|-----------------------------------------------------------------------------|

G|-------10-------------10-------------13------15--------15--------------------|
D|-----11---11--------11---11--------15---15--------13-----13\-----------------|
A|-9-------------9--------------13--------------------11-----------------------|
E|-----------------------------------------------------------------------------|

G|-----------------------------------------------------------------------------------------------------|
D|-----------------------------------------------------------------------------------------13----------|
A|-9-9-9-9-9-9-9-9-9-9-9-9-9-9-9-9-9-9-9-9-13-13-13-13-13-13-13-13-13-13-11-11-11-11-11-11----11-11-13-|
E|-----------------------------------------------------------------------------------------------------|

G|-------10-------------10-------------13--------------------------------------|
D|-----11---11--------11---11--------15---15-----------------------------------|
A|-9-------------9--------------13-------------15-15-15-16-16-16-15-15-13------|
E|-----------------------------------------------------------------------------|

Section 3: 2:05

G|------------------------------------------------------------------|
D|-11-11-11-11-11-11-11-11-11-11-11-11-11-11-11-11-11-11-11-11------|
A|-9--9--9--9--9--9--9--9--9--9--9--9--9--9--9--9--9--9--9--9-------|
E|------------------------------------------------------------------|

G|------------------------------------------------------------------|
D|-15-15-15-15-15-15-15-15-15-15--13-13-13-13-13-13-15-15-11-11-----|
A|-13-13-13-13-13-13-13-13-13-13--11-11-11-11-11-11-11-11-11-11-----|
E|------------------------------------------------------------------|

G|------------------------------------------------------------------|
D|-11-11-11-11-11-11-11-11-11-11-11-11-11-11-11-11-11-11-11-11------|
A|-9--9--9--9--9--9--9--9--9--9--9--9--9--9--9--9--9--9--9--9-------|
E|------------------------------------------------------------------|

G|------------------------------------------------------------------|
D|-15-15-15-15-15-15-15-15-15-15--13-13-13-13-13-13-15-15-11-11-----|
A|-13-13-13-13-13-13-13-13-13-13--11-11-11-11-11-11-11-11-11-11-----|
E|------------------------------------------------------------------|

G|-----------------------------------------------------------------------------------------------------|
D|-----------------------------------------------------------------------------------------13----------|
A|-9-9-9-9-9-9-9-9-9-9-9-9-9-9-9-9-9-9-9-/-13-13-13-13-13-13-13-13-13-13-11-11-11-11-11-11----11-11h13-|
E|-----------------------------------------------------------------------------------------------------|
 PM. . . . . . . . . . . . . . . . . .
G|-----------------------------------------------------------------------------------------------------|
D|-----------------------------------------------------15-15-------------------------------------------|
A|-9-9-9-9-9-9-9-9-9-9-9-9-9-9-9-9-9-9-9-9-13-13-13-13-13-13-13-13-13-13-11-11-11-11---8-8-8-8-8-------|
E|-----------------------------------------------------------------------------------------------------|

G|-----------------------------------------------------------------------------------------------------|
D|-------11-------------------11-----------------------15----------------------------13----------------|
A|-9-9-9------9-9-9-9-9-9-9-9------9-9-9-9-9--13-13-13------13-13-13-13-13--11-11-11----11-11-11-11h13-|
E|-----------------------------------------------------------------------------------------------------|

G|-------10-------------10-------------13---------------------------|
D|-----11---11--------11---11--------15---15------------------------|
A|-9-------------9--------------13-------------15-16-15-------------|
E|------------------------------------------------------------------|

Section 4: 2:52

G|---------------------------------------------------------------------------|
D|-11-11-11-11---11-11-11-11---11-11-11-11---11-11-11-11---------------------|
A|----------------------------------------------------------11---8--8-8-8-6--|
E|---------------------------------------------------------------------------|

G|---------------------------------------------------------------------------|
D|-11-11-11-11---11-11-11-11---11-11-11-11---11-11-11-11---------------------|
A|----------------------------------------------------------11---8--8-8-8-6--|
E|---------------------------------------------------------------------------|

G|-------------------------------------------------13------------------------|
D|-11-11-11-11-11-11-11-11-11-11-11h13-13-13/15-15----15---------------------|
A|----------------------------------------------------------11---8--8-8-8-6--|
E|---------------------------------------------------------------------------|

G|--------------------------------------------13----------------Triplets-------------|
D|-11-11-11-11---11-11-11-11---11h13-13-13/15----15----------------------------------|
A|----------------------------------------------------------11-11-11-11:-8--8-8-6/--|
E|---------------------------------------------------------------------------------2-|


Section 5: Rest; come in 3:33

G|----------------------------------------------------------------------------------------------|
D|-------------------------------------------------------------------------------------13-------|
A|-9-----13-13-13-13-13-13--11-11-11-11-11-11--9--9--9--9--13-13-13-13-13-13--11-11-11----11-13-|
E|----------------------------------------------------------------------------------------------|

G|----------------------------------------------------------------------------------------------|
D|----------------------------------------------------------------------------------------------|
A|-9----9--13-13-13-13-13-13--11-11-11-11-11-11--9--9--9--13-13-13-13-13-13--11-11-11---8-------|
E|----------------------------------------------------------------------------------------------|

G|-------10-------------------------------------------10----------------------------------------|
D|----------11--------15-15-15---------------------------11-------------------------------------|
A|-9------------13-13-----------11-11-13p11-11--9-9-9--------13-13-13-15-16-18-16---------------|
E|----------------------------------------------------------------------------------------------|

G|-------10-------------------------------------------10----------------------------------------|
D|----------11------------------------13-----------------11-------------------------------------|
A|-9-9-9--------13-13-13-13--11-11-11----11-13--9-9-9--------13-13-13-13-13-13------------------|
E|-----------------------------------------------------------------------------13\--------------|



Outro: 4:05

G|--------------------------------------------------------------------------------------|
D|--------------------------------------------------------------------------------------|
A|--------------------------------------------------------------------------------------|
E|-2------2------4-4-4--2-2-0h2------1-1-1---2-2-0h2----4-4-4---2-2-0h2/---2-2/---1-1-2-|


************************************

| x Dead note
| h Hammer-on
| p Pull-off
| / Slide up
| \ Slide down

************************************

Almost there ...

Sign in to get your own page with links to favourite songs and more. You are just one click away...

Login with Facebook Login with Google