Log in

One click and you are in

Login with Facebook Login with Google

Why sign up and log in

Guitar Tabs Explorer
Deliverance tabs for Solitude

Guitar tabs

Original tab by: Bryan Bramlett (bryanmb87@aol.com)
Taken from azchords.com.

solo added by marmistrz
Tuning: 1/2 Step Down (Eb,Ab,Db,Gb,Bb,Eb)


INTRO: (* - only guitar 2)
|--------------|
|--------------|
|--------------|
|-7-7--8--*10*-|
|-5-5--6---*8*-|
|--------------|


INTRO B: (guitar 1 plays once alone, then guitar 2 joins)
|----------------------------------------------|
|----------------------------------------------|
|-------5-4-------4-3-------5-4----------------|
|---2-3-------2-3-------2-3-------000000001111-|
|-0---------0---------0---------0--------------|
|----------------------------------------------|
pm. . .     . . .     . . .     .


INTRO FINAL TIME:
|---|
|---|
|-3-|
|-1-|
|---|
|---|

VERSE:
|---------------------------------------------------------------|
|---------------------------------------------------------------|
|---------------------------------------------------------------|
|---------------------------------------------------------------|
|-54-54---------54-54---------54-54---------54-54-----3-|
|-32-32-0-000-0-32-32-0-000-0-32-32-0-000-0-32-32-0-0-1-|
pm        . ... .         . ... .         . ... .         . .


BRIDGE:
|---------------|
|---------------|
|---------------|
|-2--7-7------9-|
|-2------10-7---|
|-0-------------|


CHORUS:
|---------------------------------------------------------------------|
|---------------------------------------------------------------------|
|-5-4-2---------------------------------------------------------------|
|-5-4-2---------------------------------------------------------------|
|-3-2-0-54-54---------54-54---------54-54---------54-54-----3-|
|-------32-32-0-000-0-32-32-0-000-0-32-32-0-000-0-32-32-0-0-1-|
pm              . ... .         . ... .         . ... .         . .

|-----------|
|-----------|
|-5--77--88-|
|-5--77--88-|
|-3--55--66-|
|-----------|

FINAL TIME:
|----------------------------|
|----------------------------|
|-9----7----5----7-----------|
|-9----7----5----7-----------|
|-7--7-5--5-3--3-5--5-5--5-5-|
|----------------------------|

INTERLUDE:
|-8-------------8----------------------|
|---10-8-10-8-----10-8-10-8---8-10-8---|
|-------------9-------------9--------9-|
|--------------------------------------|
|--------------------------------------|
|--------------------------------------|

INTERLUDE FILL:
|-----------|
|-8-10-8~~~-|
|-----------|
|-----------|
|-----------|
|-----------|


SOLO BACKGROUND:
|------------------------------------------------------------------|
|------------------------------------------------------------------|
|-9--9--9--9--99997--7--7--7--77775--5--5--5--55557--7--7--7--7777-|
|-9--9--9--9--99997--7--7--7--77775--5--5--5--55557--7--7--7--7777-|
|-7777777777777777555555555555555533333333333333335555555555555555-|
|------------------------------------------------------------------|
pm .. .. .. ..     .. .. .. ..     .. .. .. ..     .. .. .. ..



SOLO:

There are probably some errors here and it's incomplete.
It's my first try of tabbing and it's hard for me to work out some parts
(...-...) means I don't know what's there

|-5b7--(...-...)--------------------------------|
|-----------------------------------------------|
|-----------------------------------------------|
|-----------------------------------------------|
|-----------------------------------------------|
|-----------------------------------------------|

|-------------14h15-16h17--------------14h15-16h17--------------14h15-16h17-|
|-14h15-16h17-------------14h15-16h17--------------14h15-16h17--------------|
|---------------------------------------------------------------------------|
|---------------------------------------------------------------------------|
|---------------------------------------------------------------------------|
|---------------------------------------------------------------------------|

(...-...)

|-----------------------------------------------|
|--8b7--(...-...)-------------------------------|
|-----------------------------------------------|
|-----------------------------------------------|
|-----------------------------------------------|
|-----------------------------------------------|

(...-...)


OUTRO:
|---------|
|---------|
|---------|
|-5--7--9-|
|-5--7--9-|
|-3--5--7-|


/ - slide
h - hammer-on
b - bend
~ - vibrato

Almost there ...

Sign in to get your own page with links to favourite songs and more. You are just one click away...

Login with Facebook Login with Google