Log in

One click and you are in

Login with Facebook Login with Google

Why sign up and log in

Guitar Tabs Explorer
DeLillos tabs for Min beibi dro avsted

Tabs

Album: Mere (live)


intro:

just repeating A chord diagramBB a number of times:    this part is played twice:
G--------------------------------|---------------------------------------------
D----------------------------9---|--------------------5------------------------
A--------------------------9-----|------9---------5-----------9--------------0-
E--7-7-7-7-7-7-7-7-7-7-7-7-------|--7-------7\3-----------7-------7\3---2-3----
verse:
x2
G------------------------------------------------------------------------------
D------------------------------7---------7-----------------7---5---------------
A-------9---------2---4---5-------5\4-------4--------7-------------------------
E---7-------7\3-----------------------------------5-----------------7\----0---5


              first time    second time
G------------|---------|-------------------------------------------------------
D---------7--|---------|---7---7---7---7---------------------------------------
A-7----------|-7------ |-------------------------------------------------------
E----5-------|------5--|-------------------------------------------------------


chorus:

G------------------------------------------------------------------------------
D--------------------------------------------------------------------1---2---2-
A---2-2-2-2-2-2-2-2--------------------0-0-0-0-0-0-0-0---2---2---4-------------
E----------------------0-0-0-0-0-0-0-0-----------------------------------------
G------------------------------------------------------------------------------
D---4---6---7---6---4---2----------------0---0---0---0---0---0---0-------------
A-----------------------------0---0-2-0---------------------------------0-2-0--
E------------------------------------------------------------------------------


G------------------------------------------------------------------------------
D---2---2---2---2---2---2-------0---2---2---2---0------------------------------
A-----------------------------3-------------------------4----------------------
E-------------------------------------------------------------2----------------

between chorus and verse:
x2
G------------------------------------------------------------------------------
D------------------------------------------------------------------------------
A--------------------5---7-----------------------------0-----------------------
E---7---7---7---3------------7---7---7---3---2---3-----------------------------


verse:

G------------------------------------------------------------------------------
D-----------------------------------------------------------------------7-7-7-7
A------------------4---5---5---5------------------0---0----------0---0---------
E-7---7---3---3--------------------2---2---0-2-3----------0---0----------------


chorus as before, and then (when he sings :hey hey, hey hey)
x2
G------------------------------------------------------------------------------
D------------------------------------------------------------------------------
A----------------5---7----------------5---7------------------------------------
E---7---7---3------------7---7---3---------------------------------------------

no playing at the chorus, and then the finnish
x2
G------------------------------------------------------------------------------
D------------------------------------------------------------------------------
A------------------------------------------------------------------------------
E---7---7---7---4-2-0---0---0-2-4-5---5---5-2-4-5------------------------------

and then (faster and faster)
			either					or
G---------------------------------------------|--------------------------------
D---------------------------------------------|--------------------------------
A-----------------------5---4---2---0---0---0-|--------------------------------
E-7---5---4---2---0-------------------------|-7---7---7---0---0---0---5---5---5


For any questions or corrections, please email me at arelosnegard@hotmail.com
ⓘ Guitar tab for 'Min Beibi Dro Avsted' by DeLillos, a pop band formed in 1984

Almost there ...

Sign in to get your own page with links to favourite songs and more. You are just one click away...

Login with Facebook Login with Google