Log in

One click and you are in

Login with Facebook Login with Google

Why sign up and log in

Guitar Tabs Explorer
Lana Del Rey bass tabs for Doin time

Bass tabs

Intro:

No bass


Verse 1:

G|----------------|----------------|----------------|----------------|
D|----------------|----------------|----------------|----------------|
A|----------------|3---6---5~------|----------------|3---6---5-------|
E|3-3---3-6---3-6-|----------------|3-3---3-6---3-6-|------------6---|

G|----------------|----------------|----------------|----------------|
D|----------------|----------------|----------------|----------------|
A|----------------|3---6---5~------|----------------|3---6---5-------|
E|3-3---3-6---3-6-|----------------|3-3---3-6---3-6-|------------6---|

G|----------------|----------------|----------------|----------------|
D|----------------|----------------|----------------|----------------|
A|----------------|3---6---5~------|----------------|3---6---5-------|
E|3-3---3-6---3-6-|----------------|3-3---3-6---3-6-|------------6---|

G|----------------|----------------|----------------|----------------|
D|----------------|----------------|----------------|----------------|
A|----------------|3---6---5~------|----------------|3---6---5-------|
E|3-3---3-6---3-6-|----------------|3-3---3-6---3-6-|------------6---|


Chorus 1:

G|----------------|----------------|----------------|----------------|
D|--------5~------|--------5~------|------------4---|--------3---4---|
A|3~----6---------|3~----6---------|------5---------|5---5-----------|
E|----------------|----------------|5-------5-------|----------------|

G|----------------|----------------|----------------|----------------|
D|----------------|----------------|----------------|----------------|
A|----------------|3---6---5~------|----------------|3---6---5-------|
E|3-3---3-6---3-6-|----------------|3-3---3-6---3-6-|------------6---|

Verse 2:

G|----------------|----------------|----------------|----------------|
D|----------------|----------------|----------------|----------------|
A|----------------|3---6---5~------|----------------|3---6---5-------|
E|3-3---3-6---3-6-|----------------|3-3---3-6---3-6-|------------6---|

G|----------------|----------------|----------------|----------------|
D|----------------|----------------|----------------|----------------|
A|----------------|3---6---5~------|----------------|3---6---5-------|
E|3-3---3-6---3-6-|----------------|3-3---3-6---3-6-|------------6---|

G|----------------|----------------|----------------|----------------|
D|----------------|----------------|----------------|----------------|
A|----------------|3---6---5~------|----------------|----------------|
E|3-3---3-6---3-6-|----------------|----------------|----------------|


Chorus 2:

G|----------------|----------------|----------------|----------------|
D|----------------|----------------|----------------|----------------|
A|----------------|3---6---5~------|----------------|3---6---5-------|
E|3-3---3-6---3-6-|----------------|3-3---3-6---3-6-|------------6---|

G|----------------|----------------|----------------|----------------|
D|----------------|----------------|----------------|----------------|
A|----------------|3---6---5~------|----------------|3---6---5-------|
E|3-3---3-6---3-6-|----------------|3-3---3-6---3-6-|------------6---|

G|----------------|----------------|----------------|----------------|
D|--------5~------|--------5~------|------------4---|--------3---4---|
A|3~----6---------|3~----6---------|------5---------|5---5-----------|
E|----------------|----------------|5-------5-------|----------------|

G|----------------|----------------|----------------|----------------|
D|----------------|----------------|----------------|----------------|
A|----------------|3---6---5~------|----------------|3---6---5-------|
E|3-3---3-6---3-6-|----------------|3-3---3-6---3-6-|------------6---|


Verse 3:

G|----------------|----------------|----------------|----------------|
D|----------------|----------------|----------------|----------------|
A|----------------|3---6---5~------|----------------|3---6---5-------|
E|3-3---3-6---3-6-|----------------|3-3---3-6---3-6-|------------6---|

G|----------------|----------------|----------------|----------------|
D|----------------|----------------|----------------|----------------|
A|----------------|3---6---5~------|----------------|3---6---5-------|
E|3-3---3-6---3-6-|----------------|3-3---3-6---3-6-|------------6---|

G|----------------|----------------|----------------|----------------|
D|----------------|----------------|----------------|----------------|
A|----------------|3---6---5~------|----------------|3---6---5-------|
E|3-3---3-6---3-6-|----------------|3-3---3-6---3-6-|------------6---|

G|----------------|----------------|----------------|----------------|
D|----------------|----------------|----------------|----------------|
A|----------------|3---6---5~------|----------------|3---6---5-------|
E|3-3---3-6---3-6-|----------------|3-3---3-6---3-6-|------------6---|


Bridge:

No bass


Chorus 3:
G|----------------|----------------|----------------|----------------|
D|----------------|----------------|----------------|----------------|
A|----------------|3---6---5~------|----------------|3---6---5-------|
E|3-3---3-6---3-6-|----------------|3-3---3-6---3-6-|------------6---|

G|----------------|----------------|----------------|----------------|
D|----------------|----------------|----------------|----------------|
A|----------------|3---6---5~------|----------------|3---6---5-------|
E|3-3---3-6---3-6-|----------------|3-3---3-6---3-6-|------------6---|

G|----------------|----------------|----------------|----------------|
D|--------5~------|--------5~------|----------------|----------------|
A|3~----6---------|3~----6---------|----------------|----------------|
E|----------------|----------------|----------------|----------------|


☠☠☠☠☠☠☠☠☠☠☠☠☠☠☠☠☠☠☠☠☠☠☠☠☠☠☠☠☠☠☠☠☠☠*

| ~  Hold note

☠☠☠☠☠☠☠☠☠☠☠☠☠☠☠☠☠☠☠☠☠☠☠☠☠☠☠☠☠☠☠☠☠☠*

Almost there ...

Sign in to get your own page with links to favourite songs and more. You are just one click away...

Login with Facebook Login with Google