Log in

One click and you are in

Login with Facebook Login with Google

Why sign up and log in

Guitar Tabs Explorer
Lana Del Rey bass tabs for Dealer

Bass tabs

Key: Bb

🎸 Intro:

G|----------------|----------------|----------------|----------------|
D|----------------|----------------|----------------|----------------|
A|1~--------------|1-1~----------x-|1~--------------|1-1~------------|
E|--------------1-|----------------|--------------1-|----------------|

G|----------------|----------------|----------------|----------------|
D|----------------|----------------|----------------|.---------------|
A|1~--------------|1-1~----------x-|1~--------------|1---------------|
E|--------------1-|----------------|--------------1-|----------------|

🎸 Verse 1:

G|----------------|----------------|----------------|----------------|
D|----------------|----------------|----------------|----------------|
A|1~--------------|1---1~--------x-|1~--------------|1---1~--------x-|
E|--------------1-|----------------|--------------1-|----------------|

G|----------------|----------------|----------------|----------------|
D|----------------|----------------|----------------|----------------|
A|3~--------------|3---3~------6---|3~--------------|3---3~------6---|
E|--------------3-|----------------|--------------3-|----------------|

G|----------------|----------------|----------------|----------------|
D|----------------|----------------|----------------|----------------|
A|1~--------------|1---1~--------x-|1~--------------|1---1~--------x-|
E|--------------1-|----------------|--------------1-|----------------|

G|----------------|----------------|----------------|----------------|
D|----------------|----------------|----------------|--------5-------|
A|3~--------------|3---3~------6---|3~--------------|3---6-------6---|
E|--------------3-|----------------|--------------3-|----------------|

G|----------------|----------------|----------------|----------------|
D|----------------|----------------|----------------|--------3-------|
A|1~--------------|1---1~--------x-|1~--------------|1---1-------1---|
E|--------------1-|----------------|--------------1-|----------------|

G|----------------|----------------|----------------|----------------|
D|----------------|----------------|----------------|----------------|
A|3~--------------|3---3~-----6--5-|3~--------------|3---6---5---3---|
E|--------------3-|----------------|------------3---|----------------|

G|----------------|----------------|----------------|----------------|
D|----------------|----------------|----------------|----3-----------|
A|1~--------------|1---1~--------x-|1~--------------|1-------1---2---|
E|--------------1-|----------------|--------------1-|----------------|

G|----------------|-----------------|----------------|----------------|
D|----------------|-----------10--8-|----------------|------------5---|
A|3~--------------|3---3~-----------|6---3~----------|3---3---5-------|
E|--------------3-|-----------------|--------------3-|----------------|

🎸 Pre-Chorus 1:

G|----------------|----------------|----------------|----------------|
D|----------------|----------------|----------------|----------------|
A|1~--------------|1---1~----------|1~--------------|1---1~----------|
E|--------------1-|----------------|--------------1-|----------------|

🎸 Chorus 1:

G|----------------|----------------|----------------|----------------|
D|----------------|----------------|----------------|--------3-------|
A|1~--------------|1---1~--------x-|1~--------------|1---1-------1---|
E|--------------1-|----------------|--------------1-|----------------|

G|----------------|----------------|----------------|----------------|
D|----------------|----------------|----------------|----------------|
A|3~--------------|3---3~------6---|3~--------------|3---3~------3---|
E|--------------3-|----------------|--------------3-|----------------|

G|----------------|----------------|----------------|----------------|
D|----------------|----------------|----------------|----------------|
A|1~--------------|1---1~--------x-|1~--------------|1---1~------1---|
E|--------------1-|----------------|--------------1-|----------------|

G|----------------|----------------|----------------|----------------|
D|----------------|----------------|----------------|----------------|
A|3~--------------|3---3~-----6--5-|3~--------------|3---3---4---5---|
E|--------------3-|----------------|------------3---|----------------|

G|----------------|----------------|----------------|----------------|
D|----------------|------------3---|----------------|----3-----------|
A|1~--------------|1---1~----------|1~--------------|1-------1---2---|
E|--------------1-|----------------|--------------1-|----------------|

G|----------------|----------------|----------------|-------5-----------|
D|----------------|----------------|----------------|----5----5---------|
A|3~--------------|3---3~-----6--5-|3~--------------|3-----------6-5--3-|
E|--------------3-|----------------|--------------3-|-------------------|

🎸 Verse 2:

G|----------------|----------------|----------------|----------------|
D|----------------|----------------|----------------|----------------|
A|1~--------------|1---1~--------x-|1~--------------|1---1---2---6---|
E|--------------1-|----------------|--------------1-|----------------|

G|----------------|-----------------|----------------|----------------|
D|----------------|------------5----|----------------|----------------|
A|3~--------------|3---3~---------6-|5---3~----------|3---3---5---6---|
E|--------------3-|-----------------|--------------3-|----------------|

G|----------------|----------------|----------------|----------------|
D|----------------|----------------|----------------|----3-----------|
A|1~--------------|1---1~--------x-|1~--------------|1-------1---2---|
E|--------------1-|----------------|--------------1-|----------------|

G|----------------|5----------------|----------------|5---------------|
D|----------------|---5-------------|--------------5-|----5-----------|
A|3-------------5-|-----3~----------|3~--------------|--------6---5---|
E|----------------|-------------3---|----------------|----------------|

G|----------------|----------------|----------------|----------------|
D|----------------|------------3---|----------------|--------3-------|
A|1~--------------|1---1~----------|1~--------------|1---1-------2---|
E|--------------1-|----------------|--------------1-|----------------|

G|------------5---|----------------|------------5---|----------------|
D|----------------|5---------------|----------------|5---------------|
A|3---------------|----6---5~------|3---3~----------|----6---5---3---|
E|----------------|--------------3-|----------------|----------------|

G|----------------|3---3~----------|----------------|3---------------|
D|--------------3-|------------3---|--------------3-|----3-----------|
A|1~--------------|----------------|1~--------------|--------1---2---|
E|----------------|----------------|----------------|----------------|

G|----------------|--------5-------|----------------|----------------|
D|----------------|----5-------5---|----------------|----------------|
A|3~------------5-|6---------------|3~------------5-|6---5---3---6---|
E|----------------|----------------|----------------|----------------|

🎸 Pre-Chorus 2:

G|----------------|----------------|----------------|----------------|
D|----------------|----------------|----------------|----------------|
A|1~--------------|----1~----------|1~--------------|1---1~----------|
E|----------------|----------------|----------------|----------------|

🎸 Chorus 2:

G|----------------|----------------|----------------|----------------|
D|--------------3-|----------------|--------------3-|--------3-------|
A|1~--------------|1---1~--------x-|1~--------------|1---1-------1---|
E|----------------|----------------|----------------|----------------|

G|----------------|5---------------|----------------|5---------------|
D|--------------5-|----5-----------|--------------5-|----5-----------|
A|3~--------------|--------6---5---|3~--------------|--------6---5---|
E|----------------|----------------|----------------|----------------|

G|----------------|3---------------|----------------|3---------------|
D|--------------3-|----3-----------|--------------3-|----3-----------|
A|1~--------------|--------1-------|1~--------------|--------1---2---|
E|----------------|------------1---|----------------|----------------|

G|----------------|----5-----------|----------------|----5-----------|
D|----------------|5-------5-------|----------------|5-------5-------|
A|3~------------6-|------------6---|3~------------6-|------------6---|
E|----------------|----------------|----------------|----------------|

G|----------------|3---3-----------|----------------|3---------------|
D|--------------3-|--------3-------|--------------3-|----3-----------|
A|1~--------------|----------------|1~--------------|--------1---2---|
E|----------------|------------0---|----------------|----------------|

G|----------------|--------5--------|----------------|----------------|
D|----------------|----5-------5----|----------------|----------------|
A|3~------------5-|6--------------6p|3~------------5-|6---5---3---6---|
E|----------------|-----------------|----------------|----------------|

🎸 Verse 3:

G|----------------|------------3---|----------------|------------3---|
D|--------------3-|----------------|----------------|----------------|
A|1~--------------|1---1~----------|1~------------x-|1---1~----------|
E|----------------|----------------|----------------|----------------|

G|----------------|------------5---|----------------|------------5---|
D|----------------|----------------|----------------|----------------|
A|3~------------x-|3---3~----------|3~------------x-|3---3~----------|
E|----------------|----------------|----------------|----------------|

G|----------------|----------------|----------------|----------------|
D|----------------|----------------|----------------|----------------|
A|1~------------x-|1---1~--------x-|1~------------x-|1---1~------1---|
E|----------------|----------------|----------------|----------------|

G|----------------|------------5---|----------------|----------------|
D|----------------|----------------|----------------|----------------|
A|3~--------x-6---|3~--------------|3~------------x-|3---3~----------|
E|----------------|----------------|----------------|----------------|

☠☠☠☠☠☠☠☠☠☠☠☠☠☠☠☠☠☠☠☠☠☠☠☠☠☠☠☠☠☠☠☠☠☠*

| x  Dead note
| p  Pull-off
| ~  Hold note
|  Staccato

☠☠☠☠☠☠☠☠☠☠☠☠☠☠☠☠☠☠☠☠☠☠☠☠☠☠☠☠☠☠☠☠☠☠*

Almost there ...

Sign in to get your own page with links to favourite songs and more. You are just one click away...

Login with Facebook Login with Google