Log in

One click and you are in

Login with Facebook Login with Google

Why sign up and log in

Guitar Tabs Explorer
Lana Del Rey bass tabs for Boarding school

Bass tabs

Intro:

G|----------------|----------------|----------------|----------------|
D|3-3---3-----1-1-|3-3---3-----1-1-|3-3---3-----1---|3-3---3-----1-1-|
A|--------3-3-----|--------3-3-----|--------3-3---3-|--------3-3-----|
E|----------------|----------------|----------------|----------------|


Chorus 1:

G|----------------|----------------|----------------|----------------|
D|3-3---3-----1-1-|3-3---3-----1---|----------------|----------------|
A|--------3-3-----|--------3-3---3-|1-1---1-----1-1-|3-3---3-1-1-----|
E|----------------|----------------|--------4-4-----|------------4-4-|

G|----------------|----------------|----------------|----------------|
D|3-3---3-----1-1-|3-3---3-----1---|----------------|------------1-1-|
A|--------3-3-----|--------3-3---3-|1-1---1-----1-1-|3-3---3-3-3-----|
E|----------------|----------------|--------4-4-----|----------------|


Verse 1:

G|----------------|----------------|----------------|----------------|
D|3-3---3---------|3-3---3-----3---|--------3-3-----|3-3---3-----3---|
A|--------3-3---3-|--------3-3-----|1-1---1-------1-|--------3-------|
E|----------------|----------------|----------------|----------------|

G|----------------|----------------|------3---------|----------------|
D|3-3---3---------|3-3---3-----3---|----------------|3-3---3-----3---|
A|--------3-3---3-|--------3-3-----|1-1-----1-1---1-|--------3-------|
E|----------------|----------------|----------------|----------------|

G|----------------|----------------|----------------|----------------|
D|3-3---3---------|3-3---3-----3---|----------------|.---.---.-------|
A|--------3-3---3-|--------3-------|1-1---1-1-1---1-|3---3---3-------|
E|----------------|----------------|----------------|----------------|

Chorus 2:

G|----------------|----------------|----------------|----------------|
D|3-3---3-----1-1-|3-3---3-----1---|----------------|----------------|
A|--------3-3-----|--------3-3---3-|1-1---1-----1-1-|3-3---3-1-1-----|
E|----------------|----------------|--------4-4-----|------------4-4-|

G|----------------|----------------|----------------|----------------|
D|3-3---3-----1-1-|3-3---3-----1---|----------------|------------1-1-|
A|--------3-3-----|--------3-3---3-|1-1---1-----1-1-|3-3---3-3-3-----|
E|----------------|----------------|--------4-4-----|----------------|


Verse 2:

G|----------------|----------------|----------------|----------------|
D|3-3---3---------|3-3---3-----3---|--------3-3-----|3-3---3---------|
A|--------3-3---3-|--------3-------|1-1---1-------1-|--------3-3---3-|
E|----------------|----------------|----------------|----------------|

G|----------------|----------------|----------------|----------------|
D|3-3---3---------|3-3---3---------|--------3-3-----|3-3---3---------|
A|--------3-3---3-|--------3-3-6\--|1-1---1-----1---|--------3-3-6\--|
E|----------------|----------------|----------------|----------------|

G|----------------|----------------|----------------|----------------|
D|3-3---3---------|3-3---3-----3---|----------------|3-3---3-----3---|
A|--------3-3---3-|--------3-------|----------------|--------3-3---3-|
E|----------------|----------------|6-6---6-6-6-6\--|----------------|

G|----------------|----------------|----------------|----------------|
D|3-3---3---------|3-3---3-----3---|----------------|.---.---.-------|
A|--------3-3---3-|--------3-3-----|1-1---1-1-1---1-|3---3---3-------|
E|----------------|----------------|----------------|----------------|


Chorus 3:

G|----------------|----------------|----------------|----------------|
D|3-3---3-----1-1-|3-3---3-----1---|----------------|----------------|
A|--------3-3-----|--------3-3---3-|1-1---1-----1-1-|3-3---3-1-1-----|
E|----------------|----------------|--------4-4-----|------------4-4-|

G|----------------|----------------|----------------|----------------|
D|3-3---3-----1-1-|3-3---3-----1---|----------------|----------------|
A|--------3-3-----|--------3-3---3-|1-1---1-----1-1-|3-3---3-1-1-----|
E|----------------|----------------|--------4-4-----|------------4-4-|


Bridge:

G|----------------|----------------|----------------|----------------|
D|----------------|----------------|----------------|----------------|
A|3-3-3-3-3-3-3-3-|3-3-3-3-3-3-4-4-|6-6-6-6-6-6-6-6-|6-6-6-6-6-6-4-4-|
E|----------------|----------------|----------------|----------------|

G|----------------|----------------|----------------|----------------|
D|----------------|----------------|----------------|----------------|
A|3-3-3-3-3-3-3-3-|3-3-3-3-3-3-4-4-|6-6-6-6-6-6-6-6-|6-6-6-6-6-6-4-4-|
E|----------------|----------------|----------------|----------------|

G|----------------|----------------|----------------|----------------|
D|----------------|----------------|----------------|----------------|
A|3-3-3-3-3-3-3-3-|3-3-3-3-3-3-4-4-|6-6-6-6-6-6-6-6-|6-6-6-6-6-6-4-4-|
E|----------------|----------------|----------------|----------------|

G|----------------|----------------|----------------|----------------|
D|----------------|----------------|----------------|----------------|
A|3-3-3-3-3-3-3-3-|3-3-3-3-3-3-4-4-|6-6-6-6-6-6-6-6-|6-6-6-6-6-6-4-4-|
E|----------------|----------------|----------------|----------------|

G|----------------|----------------|----------------|----------------|
D|----------------|----------------|----------------|----------------|
A|3-3-3-3-3-3-3-3-|3-3-3-3-3-3-4-4-|6-6-6-6-6-6-6-6-|6-6-6-6-6-6-4-4-|
E|----------------|----------------|----------------|----------------|

G|----------------|----------------|----------------|----------------|
D|----------------|----------------|----------------|----------------|
A|3-3-3-3-3-3-3-3-|3-3-3-3-3-3-4-4-|6-6-6-6-6-6-6-6-|6-6-6-6-6-6-4-4-|
E|----------------|----------------|----------------|----------------|

G|----------------|----------------|----------------|----------------|
D|--3---3-----1-1-|3-3---3-----1-1-|3-3---3-----1-1-|3-3---3---------|
A|3-------3-3-----|--------3-3-----|--------3-3-----|--------3-3-6\--|
E|----------------|----------------|----------------|----------------|


Verse 3:

G|----------------|----------------|----------------|----------------|
D|3-3---3---------|3-3---3-----3---|--------3-------|3-3---3-----3---|
A|--------3-3---3-|--------3-3-----|1-1---1-----1---|--------3-------|
E|----------------|----------------|----------------|----------------|

G|----------------|----------------|----------------|----------------|
D|3-3---3---------|3-3---3-----3---|----------------|.---.---.-------|
A|--------3-3---3-|--------3-------|1-1---1-1-1---1-|3---3---3-------|
E|----------------|----------------|----------------|----------------|


Chorus 4:

G|----------------|----------------|----------------|----------------|
D|3-3---3-----1---|3-3---3---------|----------------|----------------|
A|--------3-3-----|--------3-3-6\--|1-1---1-----1-1-|3-3---3-1-1-----|
E|----------------|----------------|--------4-4-----|------------4-4-|

G|----------------|----------------|----------------|----------------|
D|3-3---3---------|3-3---3---------|----------------|----------------|
A|--------3-3-6\--|--------3-3-----|1-1---1-----1-1-|3-3-1-1---------|
E|----------------|----------------|--------4-4-----|--------4-4-3-3-|

Fade-Out:

G|----------------|------------1---|----------------|----------------|
D|3-3---3-----1-1-|3-3---3-------1-|3-3---3-----1-1-|3-3---3-----1-1-|
A|--------3-3-----|--------3-3-----|--------3-3-----|--------3-3-----|
E|----------------|----------------|----------------|----------------|

☠☠☠☠☠☠☠☠☠☠☠☠☠☠☠☠☠☠☠☠☠☠☠☠☠☠☠☠☠☠☠☠☠☠*

| \  Slide-down
|  Staccato

☠☠☠☠☠☠☠☠☠☠☠☠☠☠☠☠☠☠☠☠☠☠☠☠☠☠☠☠☠☠☠☠☠☠*

Almost there ...

Sign in to get your own page with links to favourite songs and more. You are just one click away...

Login with Facebook Login with Google