Log in

One click and you are in

Login with Facebook Login with Google

Why sign up and log in

Guitar Tabs Explorer
Lana Del Rey bass tabs for Bbm baby

Bass tabs

🎸 Intro:

G|----------8-----|------8---------|----------------|----------------|
D|------------x---|----------8---8-|----------6-----|------6---6---8-|
A|6---6---------6-|--6-------------|------------x---|----------------| x2
E|----------------|--------6---6---|4---4---------4-|--4-----4---6---|

🎸 Verse 1:

G|----------------|----------------|----------------|----------------|
D|----------------|------8-------8-|----------------|--------------8-|
A|6---6-----------|----------------|----------------|----------------|
E|----------------|--------6---6---|4---4-----------|------------6---|

G|----------------|----------------|----------------|----------------|
D|----------------|------8-------8-|----------------|------6-------8-|
A|6---6-----------|----------------|----------------|----------------|
E|----------------|--------6---6---|4---4-----------|--------6---6---|

🎸 Pre-Chorus 1:

G|----------8-----|------8---------|----------------|----------------|
D|------------x---|----------8---8-|----------6-----|------6---6---8-|
A|6---6---------6-|--6-------------|------------x---|----------------| x2
E|----------------|--------6---6---|4---4---------4-|--4-----4---6---|

🎸 Chorus 1:

G|-----------------|----------------|-------------------|-------------------------|
D|-----------------|----------------|-------------------|-------------------------|
A|/6---6-6-6-------|----------------|-------------------|-------------------------|
E|-------------5-6-|8---8-8-8-8-6-3-|4---4-4-4-4-4-12h14|/16-16-16-16-16-16-16-16\|

G|-----------------|----------------|----------------|----------------|
D|-----------------|----------------|----------------|----------8-8---|
A|/6---6-6-6-------|----------------|----------------|--------------8-|
E|-------------5-6-|8---8-8-8-8-6-3-|4-4-4-4-4-4-4-4-|4-4-4-4-6-------|

G|----------------|----------------|----------------|----------------|
D|----------------|----------------|----------------|------6---------|
A|----------------|----------------|----------------|----------------|
E|4---4-----------|--------6---6-4-|4---4-----------|--4-4---6---6---|

G|----------8-----|------8---------|----------------|----------------|
D|------------x---|----------8---8-|----------6-----|------6---6---8-|
A|6---6---------6-|--6-------------|------------x---|----------------|
E|----------------|--------6---6---|4---4---------4-|--4-----4---6---|

🎸 Verse 2:

G|----------------|----------------|----------------|----------------|
D|----------------|------8-------8-|----------------|--------------8-|
A|6---6-----------|----------------|----------------|----------------|
E|----------------|--------6---6---|4---4-----------|------------6---|

G|----------------|----------------|----------------|----------------|
D|----------------|------8-------8-|----------------|------6-------8-|
A|6---6-----------|----------------|----------------|----------------|
E|----------------|--------6---6---|4---4-----------|--------6---6---|

🎸 Pre-Chorus 2:

G|----------8-----|------8---------|----------------|----------------|
D|------------x---|----------8---8-|----------6-----|------6---6---8-|
A|6---6---------6-|--6-------------|------------x---|----------------|
E|----------------|--------6---6---|4---4---------4-|--4-----4---6---|

G|----------------|----------------|----------------|----------------|
D|----------------|------6---6---8-|----------------|----------------|
A|----------------|----------------|----------------|----------------|
E|4---4-----------|--------4---6---|4---4---------4-|4-4-4-----------|

🎸 Chorus 2:

G|-----------------|----------------|-------------------|-------------------------|
D|-----------------|----------------|-------------------|-------------------------|
A|/6---6-6-6-------|----------------|-------------------|-------------------------|
E|-------------5-6-|8---8-8-8-8-6-3-|4---4-4-4-4-4-12h14|/16-16-16-16-16-16-16-16\|

G|-----------------|----------------|----------------|----------------|
D|-----------------|----------------|----------------|----------8-8---|
A|/6---6-6-6-------|----------------|----------------|--------------8-|
E|-------------5-6-|8---8-8-8-8-6-3-|4-4-4-4-4-4-4-4-|4-4-4-4-6-------|

G|----------------|----------------|----------------|----------------|
D|----------------|--------------8-|----------------|------6---8-----|
A|----------------|----------------|----------------|----------------|
E|4---4-----------|--------6---6---|4---4-----------|--4-4---6---6---|

🎸 Bridge:

No bass

🎸 Chorus 3:

G|-----------------|----------------|-------------------|-------------------------|
D|-----------------|----------------|-------------------|-------------------------|
A|/6---6-6-6-------|----------------|-------------------|-------------------------| x3
E|-------------5-6-|8---8-8-8-8-6-3-|4---4-4-4-4-4-12h14|/16-16-16-16-16-16-16-16\|

G|-----------------|----------------|-------------------|-----------------------|
D|-----------------|----------------|-------------------|-----------------------|
A|/6---6-6-6-------|----------------|-------------------|-----------------------|
E|-------------5-6-|8---8-8-8-8-6-3-|4---4-4-4-4-4-12h14|/16-16-16-16-----18-18\|

🎸 Outro:

G|-----------------|----------------|----------------|----------------|
D|-----------------|----------------|----------------|----------------|
A|/6---6-6-6-------|----------------|----------------|----------------|
E|-------------5-6-|8---8-8-8-8-6-3-|4---4-4-4-4-4-4-|4---4-4-4-4-4-4-|

G|-----------------|----------------|----------------|----------------|
D|-----------------|----------------|----------------|----------------|
A|/6---6-6-6-------|----------------|----------------|----------------|
E|-------------5-6-|8---8-8-8-8-6-3-|4-4-4-4-4-4-4-4-|4---------------|


☠☠☠☠☠☠☠☠☠☠☠☠☠☠☠☠☠☠☠☠☠☠☠☠☠☠☠☠☠☠☠☠☠☠*

| x  Dead note
| /  Slide-up
| \  Slide-down
|  Staccato

☠☠☠☠☠☠☠☠☠☠☠☠☠☠☠☠☠☠☠☠☠☠☠☠☠☠☠☠☠☠☠☠☠☠*

Almost there ...

Sign in to get your own page with links to favourite songs and more. You are just one click away...

Login with Facebook Login with Google