Log in

One click and you are in

Login with Facebook Login with Google

Why sign up and log in

Guitar Tabs Explorer
Del Amitri tabs for Roll to me

Tabs

Hope this version will be a little less confusing than some of the existing
ones.  I think all the chords have the correct names now, and I tried to
include as much of the rhythm of the song as possible.  The moving lines for
Guitar #2 are missing some notes, but the main line is there, and the rest
is easy to improvise.  This is my own work, blah, blah, blah, etc.
TUNING:  Standard

KEY:  A chord diagramE MajorE Major (open) or A chord diagramFF Major (capo I)

STRUCTURE:

     Intro
      Verse 1
       Verse 2
        Bridge
         Verse 3
          Bridge
           Verse 4
            Coda


-----------
| PRE-INTRO |
-----------

    1 + 2 + 3 + 4 +    1 + 2 + 3 + 4 +
| |-0---------------|-(0)--------------||
|4|-0---------------|-(0)--------------||
|_|-2---------------|-(2)--------------||
| |-2---------------|-(2)--------------||
|4|-0---------------|-(0)--------------||
| |-0---------------|-(0)--------------||
| | A chord diagramAsus2Asus2 (hold)    |                  ||
| |-0---------------|-(0)--------------||
|4|-0---------------|-(0)--------------||
|_|-2---------------|-(2)--------------||
| |-2---------------|-(2)--------------||
|4|-0---------------|-(0)--------------||
| |-0---------------|-(0)--------------||
-------
| INTRO |
-------

    1 + 2 + 3 + 4 +   1 + 2 + 3 + 4 +   1 + 2 + 3 + 4 +   1 + 2 + 3 + 4 +
| |-0-------------0-|-0---------------|-0-------------0-|-0---------------||
|4|-0-------------0-|-0---------------|-0-------------0-|-0---------------||
|_|-1-/-/-/-/-/-/-2-|-2-/-/-/-/-/-/-/-|-1-/-/-/-/-/-/-2-|-2-/-/-/-/-/-/-/-||
| |-2-------------4-|-4---------------|-2-------------4-|-4---------------||
|4|-2-------------4-|-4---------------|-2-------------4-|-4---------------||
| |-0-------------0-|-0---------------|-0-------------0-|-0---------------||
| | A chord diagramE MajorE               | F#m7add11       | A chord diagramE MajorE               | F#m7add11       ||
| |-----------------|-----------------|-----------------|-----------------||
|4|-----------------|-----------------|-----------------|-----------------||
|_|---1-------------|-----------------|---1-------------|-----------------||
| |---------4-------|-----1-2---------|---------4-------|-----1-2-4-------||
|4|-2-----2---------|---------4-2-0---|-2-----2---------|-----------------||
| |-----------------|-----------------|-----------------|-----------------||


--------
| VERSES |
--------

    1 + 2 + 3 + 4 +   1 + 2 + 3 + 4 +   1 + 2 + 3 + 4 +   1 + 2 + 3 + 4 +
| |-0---------0-----|-0---------0-----|-0---------0-----|-0---------0-----|
|4|-0---------0-----|-0---------0-----|-0---------0-----|-0---------0-----|
|_|-1-/-/-/-/-4-/-/-|-2-/-/-/-/-2-/-/-|-1-/-/-/-/-4-/-/-|-2-/-/-/-/-4-/-/-|
| |-2---------6-----|-4---------2-----|-2---------6-----|-4---------4-----|
|4|-2---------6-----|-4---------0-----|-2---------6-----|-4---------2-----|
| |-0---------0-----|-0---------0-----|-0---------0-----|-0---------0-----|
    A chord diagramE MajorE      G#m(b6)  F#m7add11  A chord diagramAsus2Asus2    A chord diagramE MajorE      G#m(b6)  F#m7add11  A chord diagramBsus4Bsus4

1)  Look...           World...          Everything...     Hoped...
2)  Look...           Heart...          Aching...         Nameless...
3)  Don't...          Deny...           Down...           Hardly...
4)  Look...           World...          Everything...     Hoped...

    1 + 2 + 3 + 4 +   1 + 2 + 3 + 4 +   1 + 2 + 3 + 4 +     1 + 2 +
| |-0---------0-----|-0---------0-----|-0---------0-----| |-0-------| |
|4|-0---------0-----|-0---------0-----|-0---------0-----|2|-0-------|4|
|_|-1-/-/-/-/-4-/-/-|-2-/-/-/-/-2-/-/-|-1-/-/-/-/-2-/-/-|_|-2-/-/-/-|_|
| |-2---------6-----|-4---------2-----|-2---------4-----| |-2-------| |
|4|-2---------6-----|-4---------0-----|-2---------4-----|4|-0-------|4|
| |-0---------0-----|-0---------0-----|-0---------0-----| |-0-------| |
    A chord diagramE MajorE      G#m(b6)  F#m7add11  A chord diagramAsus2Asus2    A chord diagramE MajorE     F#m7add11   A chord diagramAsus2Asus2

1)  The...            Wrong...          The right time to   Roll to
2)  Something...      Can't...          Right then,         Roll to
3)  Engine's...       Won't...          Right time to       Roll to
4)  The...            Wrong...          The right time to   Roll to [[ CODA
]]

| |---------|---------|---------|---------||
|4|---------|---------|---------|---------||
|_|-- [[  REPEAT INTRO UNDER VOCALS  ]] --||
| |-- [[        (4 or 8 bars)        ]] --||
|4|---------|---------|---------|---------||
| |---------|---------|---------|---------||
       A chord diagramE MajorE     F#m7add11     A chord diagramE MajorE     F#m7add11

1)   Me                                     [[ Intro 1x, to Verse 2  ]]
2)   Me.  And I...                           [[ Intro 1x, to Bridge 1 ]]
3)   Me, roll to me, roll to me.  And I...  [[ Intro 2x, to Bridge 2 ]]


--------
| BRIDGE |   (strum and/or arpeggiate chords to fill)
--------

    1 2 3 4   1 2 3 4   1 2 3 4   1 2 3 4   1 2 3 4   1 2 3 4   1 2 3 4
| |-0-------|-0-------|-0-------|-0-------|-0-------|-0-------|-0-------|
|4|-0-------|-1-------|-0-------|-0-------|-0-------|-0-------|-0-------|
|_|-1-(fill)|-0-(fill)|-4-(fill)|-2-(fill)|-4-(fill)|-6-(fill)|-2-(fill)|
| |-0-------|-2-------|-6-------|-4-------|-6-------|-7-------|-4-------|
|4|-2-------|-0-------|-6-------|-4-------|-6-------|-7-------|-4-------|
| |-0-------|-0-------|-0-------|-0-------|-0-------|-0-------|-0-------|
    A chord diagramE7E7        A chord diagramAm7Am7       G#m(b6)  F#m7add11  G#m(b6)   A chord diagramAadd9Aadd9    F#m7add11

1)  Don't...  Ever...   Soul...  Despair... If...     Talk...   Guess...
2)  Don't...  Ever...   Soul...  Despair... If...     Talk...   Guess...

     1  +  2  +  3  +  4  +     1  +  2  +  3  +  4  +
| |--0-----------0-----------|--0-----------0-----------||
|4|--0-----------4-----------|--4-----------4-----------||
|_|--4--/--/--/--4--/--/--/--|--4--/--/--/--4--/--/--/--||
| |--4-----------4-----------|--4-----------4-----------||
|4|--2-----------0-----------|--0-----------0-----------||
| |--0-----------0-----------|--4-----------2-----------||
  Bsus4/E    B7add11/E      B7add11/G#  B7add11/F#

1)   There, so...   [[ to Verse 3 ]]
2)   There, so...   [[ to Verse 4 ]]


------
| CODA |
------

    1 + 2 + 3 + 4 +   1 + 2 + 3 + 4 +   1 + 2 + 3 + 4 +   1 + 2 + 3 + 4 +
| |-0---------------|-0-------0-------|-0---------------|-0-------0-------|
|4|-0---------------|-0-------0-------|-0---------------|-0-------0-------|
|_|-1-/-/-/-/-/-/-/-|-2-/-/-/-2-/-/-/-|-1-/-/-/-/-/-/-/-|-2-/-/-/-2-/-/-/-|
| |-2---------------|-4-------2-------|-2---------------|-4-------2-------|
|4|-2---------------|-4-------0-------|-2---------------|-4-------0-------|
| |-0---------------|-0-------0-------|-0---------------|-0-------0-------|
    A chord diagramE MajorE             F#m7add11  A chord diagramAsus2Asus2      A chord diagramE MajorE             F#m7add11  A chord diagramAsus2Asus2

1)  Me, the right     Time to roll to   Me, the right     Time to roll to

    1 2 3 4    1 2 3 4   1 + 2 + 3 + 4 +   1 + 2 + 3 + 4 +
| |-0-------|-(0)------|-0-------0-------|-0-----0---------||
|4|-0-------|-(0)------|-0-------0-------|-0-----0---------||
|_|-2-------|-(2)------|-1-/-/-/-2-/-/-/-|-2-/-/-1---------||
| |-4-------|-(4)------|-2-------4-------|-2-----2---------||
|4|-4-------|-(4)------|-2-------4-------|-0-----2---------||
| |-0-------|-(0)------|-0-------0-------|-0-----0---------||
   F#m7add11 (hold)    | A chord diagramE MajorE    F#m7add11  |A chord diagramAsus2Asus2  A chord diagramE MajorE (ring)  ||
                       |-----------------|-----------------||
1)  Me,       Oooh     |-----------------|-----------------||
                       |---1---------2-1-|-----------------||
                       |---------4-------|-4-2-1-2---------||
                       |-2-----2---------|-----------------||
                       |-----------------|-----------------||   [[ end ]]
ⓘ Guitar tab for 'Roll To Me' by Del Amitri, an alternative rock band formed in 1983 from Glasgow, Scotland

Other versions of Roll To Me

Other alternative guitar chords and tabs for the song Roll to me easy by Del Amitri
Roll to me easyTabs

Almost there ...

Sign in to get your own page with links to favourite songs and more. You are just one click away...

Login with Facebook Login with Google