Log in

One click and you are in

Login with Facebook Login with Google

Why sign up and log in

Guitar Tabs Explorer
Degrassi Alex tabs for Childrens dance

Guitar tabs

childrens dance' by alex degrassi

transcribed entirely by john wyman

send comments to victoriacreek at aol dot com
tuning dadgbe capo 4

|-------2-h3-2p---0-------------------------------------------|
|-----3---------3---1---------------1-------------------------|
|---2-----------------2------0-----------------0--------------|
|-0---------------------0-h4---0-h2--------0-----0------------|
|-------------------------------------0-h3---2---0p-----------|
|---------------------------------------------------4-2p-0p-0-|


|---2-h3-2p---0------------------------------|
|-3---------3---1---------------1-----------3|
|2----------------2------0-----------------2-|
|-------------------0-h4---0-h2--------0-0---|
|---------------------------------0-h3-------|
|--------------------------------------------|


|-2---0---5---2--------2p0--------------0-|
|-3---5---5---3------3-----0-------2-h3---|
|---0---0---0-----0--------------2--------|
|-------------2----------------2----------|
|---------------2------------4------------|
|-----------------------------------------|


|-2---0---5---2--------2p0----------|
|-3---5---5---3------3-----0---2\-3-|
|---0---0---0-----0------------2----|
|-------------2-------------------0-|
|---------------2------------0------|
|-----------------------------------|


|-0-----2-----0-----3-2p---0-------|
|---3-----3-----3--------3---3---3-|
|-----2-----2-----2------------2-2-|
|-------0-----2-----0------2-----0-|
|-0------------------------------0-|
|--------------------------------0-|


|-0-----2-----0-----3-2p---0-------|
|---3-----3-----3--------3---3---3-|
|-----2-----2-----2------------2-2-|
|-------0-----2-----0------2-----0-|
|-0------------------------------0-|
|--------------------------------0-|


|-------1-h3-1p---0----------------------------------------|
|-----3---------3---1---------------1----------------------|
|---2-----------------2------0-----------------0-----------|
|-0---------------------0-h4---0-h2--------0-----0---------|
|-------------------------------------0-h3---2-----3-----0-|
|--------------------------------------------------3-----0-|


|---1-h3-1p---0----------------------------------------------|
|h3---------3---1---------------1----------------------------|
h2----------------2------0-----------------------0-h2-0------|
|-------------------0-h4---0-h2--------0-0-h2-h3--------3-0--|
|---------------------------------0-h3-----------------------|
|------------------------------------------------------------|


|-2---0---5---2--------2p0--------------0-|
|-3---5---5---3-----3------0-------2-h3---|
|---0---0---0-----0--------------2--------|
|-------------2----------------2----------|
|---------------2------------4------------|
|-----------------------------------------|


|-2---0---5---2------2p0------------|
|-3---5---5---3-----3----0-----2\-3-|
|---0---0---0-----0------------2----|
|-------------2-------------------0-|
|---------------2------------0------|
|-----------------------------------|


|-0-----2-----0-----3-2p---0-------|
|---3-----3-----3--------3---3---3-|
|-----2-----2-----2------------2-2-|
|-------0-----2-----0------2-----0-|
|-0------------------------------0-|
|--------------------------------0-|


|-0-----2-----0-----3-2p---0-------|
|---3-----3-----3--------3---3---3-|
|-----2-----2-----2------------2-2-|
|-------0-----2-----0------2-----0-|
|-0------------------------------0-|
|--------------------------------0-|


|---------------3---2-----------------0---2---|
|-----3-----3-----3---3-----3-----3-----3---3-|
|---0-----0---------------0-----0-------------|
|-------------2---------------------2---------|
|-2-----4---------------2-----4---------------|
|-------------------0---------------------0---|


|-5-2------------------------------------------------|
|-----3-------------0-1-----------------0-1-0p-------|
|-------2---------2-----0-------------0--------------|
|---------0-h4\-5---------2------0-h2----------------|
|---------------------------0-h3---------------------|
|-0---------------------------------------5----0-3-0-|


|-5-2p---------------------------------------------|
|------3-------------0-1-----------------0-h1-1-h3-|
|--------2------0-h2-----0-------------0---------2-|
|----------0-h4------------2------0-h2-----------0-|
|----------------------------0-h3----------------0-|
|------------------------------------------------0-|


|-----5-------3-2p-------5-------3-2p---|
|-----5-------3----3-----5-------3----3-|
|---------------------------------------|
|---4---4---2----------4---4---2--------|
|---------0------------------0----------|
|-0------------------0------------------|


|------------------------------------------------------------|
|-3-1p-----------------------------------------3---0p-1-0p---|
|------2-0-h2-0p----0----------------------0-----5---------2-|
|-----------------3---3-0p------0------0-2---0---------------|
|--------------------------0-h3---0-h3-----------------------|
|-0--------------------------------------------5------2------|


|-----------------------------------------------------|
|-3-1p--------------------------------------0-h1-h3---|
|------2-0-h2-0p----0-----------------------------2---|
|-----------------3---3-0p------0------0-h2---------0-|
|--------------------------0-h3---0-h3----------------|
|-0---------------------------------------------------|


|-----5-------3-2p-------5-------3-2p---|
|-----5-------3----3-----5-------3----3-|
|---------------------------------------|
|---4---4---2----------4---4---2--------|
|---------0------------------0----------|
|-0------------------0------------------|


|--------------------2-0p---------5---------3-2p-0p-------------------------
--|
|-------3-0p--------------0-------------------------------3-0p---------1-0p-
--|
|-----2------2-----2------------2---2-----2-------------2------2-----2------
2-|
|---0------------0------------0---------0-------------0------------0--------
--|
|--------------0----------------------0--------------------------0----------
--|
|-0-------------------------0-----------------------0-----------------------
--|




|-----0-h3-0p-------------------0-----------------|
|-------------3---2---0-h2-0p-----0---------------|
|---2---------------2---------2-----2--------1-h2-|
|-0-----------------------------------0-h2-2------|
|---------------0---------------------------------|
|-------------------------------------------------|


|-5-h7-5p-4-h5-4p-2-h3-2p-0-----------0-h2-0p---0-------------|
|-6-------5-------3---------2-------3---------3-------3-------|
|-----------------------------2---2-----------------0-------0-|
|-------------------------------0-----------------------0-2---|
|-0-------0---------------0-----------------------2-----------|
|-----------------0-------------------------------------------|


|-------5-0p-1-0-----3-0p---1------------------------------|
|-----3----------3--------0---3----------------0-----------|
|---2--------------2------------2-0p-----------------------|
|------------------------------------h3-2-0-h2-------------|
|------------------------------------------------0-h2\-3---|
|-0------------------------------------------------------0-|


|-------1-h3-1p-0p---0-------------------------------------------|
|-----3------------3---1---------------1-------------------------|
|---2--------------------2------0---------------2-0p---2-0p------|
|--------------------------0-h4---0-h2--------0------0------0----|
|----------------------------------------0-h3---2------3------0--|
|-0----------------------------------------------------3------0--|


|-------1-h3-1p-0p---0-----------------------------------------------|
|----h3------------3---1---------------1-----------------------------|
|--h2--------------------2------0-----------------------0-h2-0p------|
|--------------------------0-h4---0-h2--------0-0-h2-h3---------3-0--|
|----------------------------------------0-h3------------------------|
|--------------------------------------------------------------------|


|---------------3---2-----------------0---2---|
|-----3-----3-----3---3-----3-----3-----3---3-|
|---0-----0---------------0-----0-------------|
|-------------2---------------------2---------|
|-2-----4---------------2-----4---------------|
|-------------------0---------------------0---|


|---------------3---2-----------------------|
|-----3-----3-----3---3-----3---0-----------|
|---0-----0---------------0-----------------|
|-------------2---------------2---------<5>-|
|-2-----4---------------2---------<5>-------|
|-------------------0-----------------0-----|


transcribed by john wyman

Almost there ...

Sign in to get your own page with links to favourite songs and more. You are just one click away...

Login with Facebook Login with Google