Log in

One click and you are in

Login with Facebook Login with Google

Why sign up and log in

Guitar Tabs Explorer
Deftones bass tabs for Sextape

Bass tabs

  • Difficulty: Intermediate
Key: F


Note: Check Ver 2 For Drop C Tuning

🎸 Intro:

No Bass for first 4 measures

🎸 Verse 1:

G|--------------------------------|
D|--------------------------------|
A|3------------0------------------| x4
D|--------------------------------|

G|--------------------------------|---------------------------------|
D|--------------------------------|---------------------------------|
A|8---8---8-8---8---8-8-----8-8-8-|8---8---8-8---8---8-8-----8------| x1
D|--------------------------------|----------------------------12---|

G|-------------------------------------|
D|-------------------------------------|
A|-------------------------------------| x4
D|10---10--9-10-9-10\7---7-7---7-7-9---|

🎸 Pre-Chorus:

G|---------------------------------|
D|---------------------------------|
A|---------------------------------| x3
D|3---3--2-3-2-3\0---0-0---0-0-2---|

G|---------------------------------|
D|---------------------------------|
A|-----------------------------3-3-| x1
D|3---3--2-3-2-3\0---0-0---0-0-----|

🎸 Chorus:

G|--------------------------------|
D|--------2---0-------------------|
A|3---3-----3---0---0-0---0-0---2-| x4
D|--------------------------------|

G|--------------------------------|
D|3---3---2-3-3-0---0-0---0-0-----|
A|----------------------3-------3-| x3
D|--------------------------------|

G|--------------------------------|
D|3---3---2-3-3-0---0-0-----------|
A|--------------------------------| x1
D|------------------------0-0-----|

🎸 Post-Chorus:

G|--------------------------------|
D|--------------------------------|
A|3-------------------------------| x1
D|--------------------------------|

🎸 Verse 2:

G|--------------------------------|
D|--------------------------------|
A|3------------0------------------| x4
D|--------------------------------|

🎸 Pre-Chorus:

G|--------------------------------|
D|--------------------------------|
A|8---8---8-8---8---8-8-----8-8-8-| x3
D|--------------------------------|

G|--------------------------------|
D|--------------------------------|
A|8---8---8-8---8---8-8-----8\3-3-| x1
D|--------------------------------|

🎸 Chorus:

G|--------------------------------|
D|--------2---0-------------------|
A|3---3-----3---0---0-0---0-0---2-| x4
D|--------------------------------|

G|--------------------------------|
D|3---3---2-3-3-0---0-0---0-0-----|
A|----------------------3-------3-| x3
D|--------------------------------|

G|--------------------------------|
D|3---3---2-3-3-0---0-0-----------|
A|--------------------------------| x1
D|------------------------0-0-----|

🎸 Outro:

G|------------|
D|------------|
A|3-----------|
D|------------|


************************************

| \ Slide down

************************************

ⓘ Bass guitar tab for 'Sextape' by Deftones, a nu metal band formed in 1989 from Sacramento, California, USA. Deftones is known for their hypnotic metal music.

Almost there ...

Sign in to get your own page with links to favourite songs and more. You are just one click away...

Login with Facebook Login with Google