Log in

One click and you are in

Login with Facebook Login with Google

Why sign up and log in

Guitar Tabs Explorer
Deftones tabs for Say it aint so

Guitar tabs

Deftones - Say It Ain't So

-Intro/Verse-
e |--4---4-----------------------5--0---------------------------------|
b |--4h5-5-------------0---------5--0---------------------------------|
g |--4h6-6--5--------5--------6--6--1------4h6------------------------|
d |--4h6-6--6------6-----6/7--7-----2------4h6------------------------|
a |--4---4--6----6-------6/7--------2---------------------------------|
e |---------4--4---------4/5--------0---0-----------------------------|

-Fill-
e |----------11-------------------------------------------------------|
b |-------12----12-14-9-12----9---------------------------------------|
g |----11------------------11---9/11-9b11---8h9----6h8---6------------|
d |-13------------------------------------------11-----9----6---------|
a |-------------------------------------------------------------------|
e |-------------------------------------------------------------------|

-Chorus-(distortion)
e |------------------------------------------------------------------|
b |------------------------------------------------------------------|
g |---6--6-----------------------------------------------------------|
d |---6--6--6--6---7--7---2------------------------------------------|
a |---4--4--6--6---7--7---2------------------------------------------|
e |---------4--4---5--5---0------------------------------------------|

-Bridge-
e |-------------------------------------------------------------------|
b |-------------------------------------------------------------------|
g |-------------------------------------------------------------------|
d |---9-9--9-8-8--9-2-2--2-5-5--5-------------------------------------|
a |---9-9--9-9-9--9-2-2--2-5-5--5-------------------------------------|

ⓘ Guitar tab for 'Say It Aint So' by Deftones, a nu metal band formed in 1989 from Sacramento, California, USA. Deftones is known for their hypnotic metal music.

Almost there ...

Sign in to get your own page with links to favourite songs and more. You are just one click away...

Login with Facebook Login with Google