Log in

One click and you are in

Login with Facebook Login with Google

Why sign up and log in

Guitar Tabs Explorer
Deftones tabs for Linus

Guitar tabs

song:linus (early demo)
by:deftones
tabbed by:josh tonkin

STANDARD TUNING
intro
1/--------------------------------------
2/--------------------------------------
3/--------------------------------------    x4
4/--------------------------------------
5/---------6-6-6-6--3-3-3-3-------------
6/-3-3-3-3------------------4-4-4-4-----
guitar 1

1/--------------------------------------
2/--------------------------------------
3/--------------------------------------
4/--------8---------5-------------------
5/--5-----6---------3-------6-6-----------
6/--3-----------------------4-4----------
guitar 2 (second time guitar1 plays intro)

1/-----------------------------------------------
2/------------------------------------------------
3/-------------------------------------------------  x2
4/-------------------------------------------------
5/--10-10-10-10-13-13-13-13-15-15-15-15-11-11-11-11-
6/--------------------------------------------------
guitar 2 (3rd and 4th times guitar 1 plays intro)

    verse
1/--------------------------------------
2/--------------------------------------
3/--------------------------------------       x4
4/--------------------------------------
5/---------4-----------------------------
6/-3-0-3-0---3-0-3-0-4--------------------
both guitars

  chorus
1/---------------------------------------
2/--------------------------------------
3/--------------------------------------   x2
4/-------------------------------------
5/---------6-6-6-6--3-3-3-3--------------
6/-3-3-3-3------------------4-4-4-4------
both guitars

  break (after second chorus)
1/-----------------------------------------------
2/-----------------------------------------------
3/------------------------------------------------  x2
4/------------------------------------------------
5/-10-10-10-10-13-13-13-13-15-15-15-15-11-11-11-11-
6/--------------------------------------------------
both guitars

outro
1/-0-------------------------------------
2/-0-------------------------------------
3/-0-------------------------------------
4/-2-------------------------------------  x1(let chord ring)
5/-2-------------------------------------
6/-0--------------------------------------


intro

verse

chorus

verse

chorus

verse

break

chorus

verse

outro

Almost there ...

Sign in to get your own page with links to favourite songs and more. You are just one click away...

Login with Facebook Login with Google