Log in

One click and you are in

Login with Facebook Login with Google

Why sign up and log in

Guitar Tabs Explorer
Deftones tabs for Change

Guitar tabs

Album: White Pony
Tabbed By Andy Morrison

Great song easy enough to play.
Tune down guitar by 4 frets.

A chord diagramE MajorE  A chord diagramBB  A chord diagramG+G  A chord diagramD MajorD  A chord diagramA augmentedA  A chord diagramE MajorE
|  |  |  |  |  |
A chord diagramC majorC  A chord diagramG+G  A chord diagramD#D# A chord diagramA#A# A chord diagramFF  A chord diagramC majorC

Play the verses with a crunchy, overdriven distortion.
Then play the chorus with a heavy fuzz distortion.
Intro/Verses/Chorus(Guitar Two)

C---------------------------------------------------------------
G----0--------0--------0--------0-----0-----0-------------------
D#---12-------12-------12-------12----12----12------------------
A#---X--X--X--X--X--X--X--X--X--X--X--X--X--X--0-7-7-7-10-10-10-
F----10-10-10-10-10-10-10-10-10-10-10-10-10-10-0-7-7-7-7--7--7--
C----0--0--0--0--0--0--0--0--0--0--0--0--0--0--0-0-0-0-0--0--0--

C-------------------------- |
G-------------------------- |  The strumming patterns change
D#------------------------- |  from verse to verse so listen
A#---9-9-9-9--10-10-10-9-7- |  to the track for the changes.
F----7-7-7-7--7--7--7--7-7- |
C----0-0-0-0--0--0--0--0-0- |


Chorus 1                Chorus 2

G-------------------- | ------------------------------- |
D#-----5---5---5---5- | ---5---5---5---5--------------- |
A#---2-5-2-5-2-5-2-5- | -2-5-2-5-2-5-2-5-5-2-5-2-5-2-5- |
F----2-3-2-3-2-3-2-3- | -2-3-2-3-2-3-2-3-5-2-5-2-5-2-5- |
C----0---0---0---0--- | -0---0---0---0---3-0-3-0-3-0-3- |

Break

D#------------------------------------------------------------
A#---7-7-7-10-10-10-9-9-9----------9-9----9----7-7-7-10-10-10-
F----0-0-0----------------10-10-10-----10-7----0-0-0----------
C-----------------------------------------0-------------------
                          x2
D#-------------------------- |
A#-9-9-9----------------9-9- |
F--------10-10-10-9-9-9---7- |
C-------------------------0- |


Chorus 3

Repeat Chorus (Guitar One)
Repeat Verse  (Guitar Two)


Outro

Guitar One
G---------------------- |
D#---12-12-12-12-12-12- |
A#---X--X--X--X--X--X-- |
F----10-10-10-10-10-10- |
C----0--0--0--0--0--0-- |

Guitar Two                repeat to end
G-------------------------------------- |
D----0--0--0--0--0--0------------------ |
A#---2--2--2--2--2--2--7-7-10-10-10-10- |
F----2--2--2--2--2--2--7-7-7--7--7--7-- |
C----0--0--0--0--0--0--5-5----------0-- |

Other versions of Change

ChangeChords

Almost there ...

Sign in to get your own page with links to favourite songs and more. You are just one click away...

Login with Facebook Login with Google