Log in

One click and you are in

Login with Facebook Login with Google

Why sign up and log in

Guitar Tabs Explorer
Deftones chords for Be quiet and drive acoustic

Chords

song: be quiet and drive(far away) acoustic version.
by: deftones

tuning: drop A chord diagramD MajorD
originally tabbed by josh tonkin
*revised by Travis Betts*
verse
e------------------------------------------------------------------
B------------------------------------------------------------------
G--11------------------------------11------------------------------
d--9-------------------------------0-------------------------------
A--9-------------------------------0-------------------------------
D--9-------------------------------0-------------------------------

* the sound after the last line may be a harmonic of the d string 5th fret

1st chorus
e------------------------------------------------------------------
B------------------------------------------------------10----------
G--11------11------9-------11------11--------------9-------11------
d--9---9-------9-------9-------9---0-------------------------------
A--9 ------------------------------0-------------------------------
D--9-------------------------------0-------------------------------


2nd chorus
e------------------------------------------------------------------
B------------------------------------------------------------------
G--11------------------------------11------------------------------
d--9-------------------------------0-------------------------------
A--9-------------------------------0-------------------------------
D--9-------------------------------0-------------------------------

* you figure out the strumming pattern of these


bridge
e------------------------------------------------------------------
B------------------------------------------------------------------
G--9-------------------------------9-------------------------------
d--7-------------------------------0-------------------------------
A--7-------------------------------0-------------------------------
D--7-------------------------------0-------------------------------

* thats it, just combinations of this... enjoy
ⓘ Guitar chords for 'Be Quiet And Drive Acoustic' by Deftones, a nu metal band formed in 1989 from Sacramento, California, USA. Deftones is known for their hypnotic metal music.

Other versions of Be Quiet And Drive Acoustic

Other alternative guitar chords and tabs for the song Be quiet and drive remix by Deftones
Be quiet and driveChords
Be quiet and drive far awayChords
Be quiet and drive remixChords

Almost there ...

Sign in to get your own page with links to favourite songs and more. You are just one click away...

Login with Facebook Login with Google