Log in

One click and you are in

Login with Facebook Login with Google

Why sign up and log in

Guitar Tabs Explorer
Default tabs for Wasting my time

Guitar tabs

Title:      Wasting My Time

*******************************************************************

Verse riff:

|-------0-----------------5-------------0-----------------5p0-----|
|-------------3-----3---------3p0-------------3-----3---------3p0-|
|-2-----------0---------0---------2-----------0---------0---------|
|-0-------------------------------0-------------------------------|
|-----------------------------------------------------------------|
|-----------------------------------------------------------------|
  1   2   3   4   1   2   3   4   1   2   3   4   1   2   3   4

|-------0-----------------5-------------0-------------------------|
|-------------3-----3---------3p0-------------3-------------------|
|-2-----------0---------0---------2-----------0-------------------|
|-0-------------------------------0-------------------------------|
|-----------------------------------------------------------------|
|-----------------------------------------------------------------|
  1   2   3   4   1   2   3   4   1   2   3   4   1   2   3   4

*******************************************************************

Chorus riff:

     |---------------------------------|
     |---------------------------------|
     |---------------------------------|  x 2
 G:  |-5-----x-----5-------------------|
     |-5-----x-----5-----------7---5p0-|
     |-5-----x-----5-----0h5h7---------|
       1   2   3   4   1   2   3   4

     |---------------------------------|
     |---------------------------------|
     |---------------------------------|  x 2
 B:  |-9-----x-----9-----------7-------|
     |-9-----x-----9-----0h5h7-----7p0-|
     |-9-----x-----9-------------------|
       1   2   3   4   1   2   3   4

     |---------------------------------|--------
     |---------------------------------|--------
     |---------------------------------|-------- ...
 A:  |-7---7---7---7---7---7---7---7---|-7------
     |-7---7---7---7---7---7---7---7---|-7------
     |-7---7---7---7---7---7---7---7---|-7------
       1   2   3   4   1   2   3   4     1   2

*******************************************************************

Solo:

(starts at 'A' section at the end of chorus 2)
Use a wah pedal for feeling

|-----------------------------------------------------------------|
|-----------------------------------------------------------------|
|-----------------------------------------------------------------|
|-7---7---7---7---7---7---7---7---7---7---7---7---9p7-------0-0-0-|
|-7---7---7---7---7---7---7---7---7---7---7---7-------7-9p7p0-0-0-|
|-7---7---7---7---7---7---7---7---7---7---7---7-------------0-0-0-|
  1   2   3   4   1   2   3   4   1   2   3   4   1   2   3   4

|-----------------------------------------------------------------|
|-----------------------------------------------------------------|
|-7/9---9-----9-----9---7-9r7-9-9-9/11--12----11h12p11------------|
|-----------------------------------------------------------------|
|-5/7---7-----7---------------------------------------------------|
|-----------------------------------------------------------------|
  1   2   3   4   1   2   3   4   1   2   3   4     1   2   3   4

|-----------------------------------------------------------------|
|-----------------------------------------------------------------|
|-----------------------------------------------------------------|
|-11----12\---9-------------------11----9\----7-------------------|
|-----------------------------------------------------------------|
|-----------------------------------------------------------------|
  1   2   3   4   1   2   3   4   1   2   3   4   1   2   3   4

|-----------------------------------------------------------------|
|-8/10.-.-.-.-8p7h8-10------------------7---7-7h8-7-----------7h8-|
|---------------------------------7h9-9---------------------------|
|-----------------------------------------------------------------|
|-----------------------------------------------------------------|
|-----------------------------------------------------------------|
  1   2   3   4   1   2   3   4   1   2   3   4   1   2   3   4
(these^ dots mean repeat the note)

|-9-----7---------------------------------------------------------|
|-------------10----8-----7h8-10--7b8r7---------------------------|
|---------------------------------------------7-------------------|
|---------------------------------------9-------------------------|
|-----------------------------------------------------------------|
|-----------------------------------------------------------------|
  1   2   3   4   1   2   3   4   1   2   3   4   1   2   3   4

*******************************************************************

Ending riff:


verse riff once + this:

|-------0-----------------5-------------0-----3-------------------|
|-------------3-----3---------3-------3---3---3-------------------|
|-2-----------0---------0-----------2-------2-0-------------------|
|-0-------------------------------0-----------0-------------------|
|-----------------------------------------------------------------|
|-----------------------------------------------------------------|
  1   2   3   4   1   2   3   4   1   2   3   4   1   2   3   4

Other versions of Wasting My Time

Wasting my timeChords
Wasting my time introTabs

Almost there ...

Sign in to get your own page with links to favourite songs and more. You are just one click away...

Login with Facebook Login with Google