Log in

One click and you are in

Login with Facebook Login with Google

Why sign up and log in

Guitar Tabs Explorer
Default chords for Live a lie

Guitar chords

Live a Lie By Default
Tabbed By Andrew Grass

This is the right way to play this song!
You can play it along perfectly with the Cd

-0----------------------0----------------------------------
-3-----1----------------3-----1----------------------------
-2-2-2-----0--2-2p0---0-2-2-2-----0-2-2-2s4-4-4------------
-0-------3----3-----3---0-------3---3-3-3s5-5-5------------
-0------------3---------0-----------3-3-3s5-5-5------------
-0------------1---------0-----------1-1-1s3-3-3------------

Chorus


-3-3-3--1-1-1-	      -3-3--0-0--1-1-1--------3-3--0-0--1--
-3-3-3--1-1-1-	      -3-3--3-3--1-1-1--------3-3--3-3--1--
-0-0-0--2-2-2-	      -0-0--2-2--2-2-2--------0-0--2-2--2--
-0-0-0--3-3-3-	x 2   -0-0--0-0--3-3-3--------0-0--0-0--3--
-2-2-2--3-3-3-	      -2-2--0-0--3-3-3--------2-2--0-0--3--
-3-3-3--1-1-1-	      -3-3-------1-1-1--------3-3-------1--
Oh I live a lie	    I've been waiting...    Still I feel...


Pre solo:(strum Chords)
e-----------------------------------------------------
B-----------------------------------------------------
G--------------77777777-----55555555------------------
D----888888888-77777777-----55555555-77777777---------
A----888888888-55555555-----33333333-77777777---------
E----666666666-----------------------55555555---------
When I seem to believe...   You can take all...



_________________________________________________________________

Other versions of Live A Lie

Live a lieTabs

Almost there ...

Sign in to get your own page with links to favourite songs and more. You are just one click away...

Login with Facebook Login with Google