Log in

One click and you are in

Login with Facebook Login with Google

Why sign up and log in

Guitar Tabs Explorer
Deee Lite bass tabs for Groove is in the heart (Ver. 2)

Groove Is In The Heart bass tab by Deee Lite (Ver. 2)

Deee Lite bass tabs for Groove is in the heart (Ver. 2)

Bass tabs

Tuning: Standard tuning

Difficulty: advanced


INTRO:

"We're going to dance"
   (rest x4)
G |-----------------|
D |-----------------|
A |-----------------|
E |-----------------|
  1 & 2 & 3 & 4 &

       (  x4  )
G |-----------------|---4---6-4-------|
D |-----4---6-4-----|-----6-----6-4-6-|
A |-------6-----6-4-|(4)--------------|
E |-4*--------------|-----------------|
  1 & 2 & 3 & 4 &  1 & 2 & 3 & 4 &


VERSE 1:
       (  x11  )       (rest x2)
G |-----------------|---4---6-4-------|-----------------|
D |-----4---6-4-----|-----6-----6-4-6-|-----------------|
A |-------6-----6-4-|(4)--------------|-----------------|
E |-4*--------------|-----------------|-----------------|
  1 & 2 & 3 & 4 &  1 & 2 & 3 & 4 &  1 & 2 & 3 & 4 &


CHORUS 1 (x6):

G |-----------------|---4---6-4-------|
D |-----4---6-4-----|-----6-----6-4-6-|
A |-------6-----6-4-|(4)--------------|
E |-4*--------------|-----------------|
  1 & 2 & 3 & 4 &  1 & 2 & 3 & 4 &


VERSE 2:
       (  x7  )       (rest x2)
G |-----------------|---4---6-4-------|-----------------|
D |-----4---6-4-----|-----6-----6-4-6-|-----------------|
A |-------6-----6-4-|(4)--------------|-----------------|
E |-4*--------------|-----------------|-----------------|
  1 & 2 & 3 & 4 &  1 & 2 & 3 & 4 &  1 & 2 & 3 & 4 &


BREAKDOWN:

    (rest x8)
G |-----------------|
D |-----------------|
A |-----------------|
E |-----------------|
  1 & 2 & 3 & 4 &

       (  x3  )
G |-----------------|-----------------|-----------------|---4---6-4-------|
D |-----------------|-----------------|-----------------|-----6-----6-4-6-|
A |-----------------|-----------------|-----------------|-----------------|
E |-4-r-------------|-----------4-r-4-|-4-r-------4---4-|-4---------------|
  1 & 2 & 3 & 4 &  1 & 2 & 3 & 4 &  1 & 2 & 3 & 4 &  1 & 2 & 3 & 4 &


CHORUS 2:
       (  x4  )        (rest x6)
G |-----------------|---4---6-4-------|-----------------|
D |-----4---6-4-----|-----6-----6-4-6-|-----------------|
A |-------6-----6-4-|(4)--------------|-----------------|
E |-4*--------------|-----------------|-----------------|
  1 & 2 & 3 & 4 &  1 & 2 & 3 & 4 &  1 & 2 & 3 & 4 &


BRIDGE (x2):                       _________________
                            /1
G |-----------------|-----------------|-----------------|-------6-4-------|
D |-----------------|-----------------|-----------------|-----------6-4-6-|
A |-----------------|-----------------|-----------------|-----------------|
E |-4-r-------------|-----------4-r-4-|-4---------------|-----------------|
  1 & 2 & 3 & 4 &  1 & 2 & 3 & 4 &  1 & 2 & 3 & 4 &  1 & 2 & 3 & 4 &
  _________________
 /2
G |---4---6-4-------|
D |-----6-----6-4-6-|
A |-----------------|
E |-----------------|
  1 & 2 & 3 & 4 &


CHORUS 3 (x4):

G |-----------------|---4---6-4-------|
D |-----4---6-4-----|-----6-----6-4-6-|
A |-------6-----6-4-|(4)--------------|
E |-4*--------------|-----------------|
  1 & 2 & 3 & 4 &  1 & 2 & 3 & 4 &


OUTRO (x2):     _________________ _________________
          /1        /2
G |-----------------|---4---6-4-------|---4-------------|
D |-----4---6-4-----|-----6-----6-4-6-|-----4-7-6-------|
A |-------6-----6-4-|(4)--------------|(4)--------7-4-X-|
E |-4*--------------|-----------------|-----------------|
  1 & 2 & 3 & 4 &  1 & 2 & 3 & 4 &  1 & 2 & 3 & 4 &
                     (tempo slows)

Other versions of Groove Is In The Heart

Groove Is in The HeartBass tabs

Almost there ...

Sign in to get your own page with links to favourite songs and more. You are just one click away...

Login with Facebook Login with Google