Log in

One click and you are in

Login with Facebook Login with Google

Why sign up and log in

Guitar Tabs Explorer
Deconstruction tabs for Big sur

Guitar tabs with lyrics

Deconstruction
^ÓBig Sur^Ô
Music: Avery/Navarro/Murphy
Lyrics: Eric Avery
Transcriber: Thor Rundquist
This transcription is all my own work. Any comments or suggestions
are welcome.  This is not a transcript of the song continuously
through, it is a transcript of the parts in the order they appear
in the song.

Opening riff: slightly dirty strat w/ chorus and reverb.
e-----------8-8~--8-8-8-8-8-8-8---------------8-8~-8-8-8-8-
B-----x-x-x-8-8~--8-8-8-8-8-8-8--------x-x-x--8-8~-8-8-8-8-
G-----x-x-x-6-6~--6-6-6-6-6-6-6--------x-x-x--6-6~-6-6-6-6-
D-7---x-x-x------------------------7---x-x-x---------------
A-0---x-x-x------------------------0---x-x-x---------------
E----------------------------------------------------------

e-8-8-8---------------8-8~-8-8-8-8-8-8-8---7-7-7-7-7-7--6--
B-8-8-8--------x-x-x--8-8~-8-8-8-8-8-8-8---7-7-7-7-7-7--6--
G-6-6-6--------x-x-x--6-6~-6-6-6-6-6-6-6---5-5-5-5-5-5--4--
D----------7---x-x-x---------------------------------------
A----------0---x-x-x---------------------------------------
E----------------------------------------------------------

e--5--4--1----------8-8~-8-8-8-8-8-8-8------------8-8~--8--
B--5--4--1----x-x-x-8-8~-8-8-8-8-8-8-8------x-x-x-8-8~--8--
G--3--2--3----x-x-x-6-6~-6-6-6-6-6-6-6------x-x-x-6-6~--6--
D-----------7-x-x-x-----------------------7-x-x-x----------
A-----------0-x-x-x-----------------------0-x-x-x----------
E----------------------------------------------------------

e-8-8-8-8-8-8------------8-8~-8-8-8-8-8-8-8---9-9-9-9-9-9--
B-8-8-8-8-8-8------x-x-x-8-8~-8-8-8-8-8-8-8---9-9-9-9-9-9--
G-6-6-6-6-6-6------x-x-x-6-6~-6-6-6-6-6-6-6---7-7-7-7-7-7-
D----------------7-x-x-x-----------------------------------
A----------------0-x-x-x-----------------------------------
E----------------------------------------------------------
                        1st verse riff: distortion
e-9-9-9-9-9-9-9-9-9-9-]------------------------------------
B-9-9-9-9-9-9-9-9-9-9-]---------------8\----------------8\-
G-7-7-7-7-7-7-7-7-7-7-]-7-7---7-7-----7\---7-7---7-7----7\-
D---------------------]-0-0---0-0----------0-0---0-0-------
A---------------------]-7-7---7-7----------7-7---7-7-------
E---------------------]-0-0---0-0----------0-0---0-0-------



Hawaiian guitar riff: clean w/ chorus and reverb
Roll the chords(strum slowly) and let ring, do all vibrato
with whammy bar.
e--9--7-----7~--7---7h9-7------------------14~-------------
B--9--9^×7h9-------9-9-----9----------------14~------------
G--9--9---------------------9-(9)/12----12(12)~------------
D------------------------------------14---(14)~------------
A----------------------------------------------------------
E----------------------------------------------------------
2nd verse riff: distortion              ^Ó^Åon and on^Å^Ô
                                             P.M.----------
e---------------------------------------]------------------
B---------------5\------------------5\--]------------------
G-7-7---7-7-----6\----7-7---7-7-----6\--]-7-7--------------
D-0-0---0-0-----------0-0---0-0---------]-6-6--------------
A-7-7---7-7-----------7-7---7-7---------]-7-7---7p0---6p0--
E-0-0---0-0-----------0-0---0-0---------]-----0-----0------
                                        ^Óon any given day^Ô
----------------]   P.M.------------------------]
e----------------------------------------------------------
B----------------------------------------------------------
G----------------7-7---------------------------------------
D----------------6-6-------------------------------7p6-----
A-5p0---5/7------7-7---7p0---6p0---5p0---5/7-----------7---
E-----0-----0-0------0-----0-----0-----0-----0-0---------5-

e----------------------------------------------------------
B----------------------------------------------------------
G----------------------------------------------------------
D-------------------7p6-------------------------7p6--------
A-7---6---5-------------7----7---6---5--------------7----7-
E---4---3---b4r3-0--------5----4---3---b4r3-0---------5----

e----------------------------------------------2-----------
B----------------------------------------------2-----------
G----------------------------------------------4-----------
D------------------7p6-------------------------4-----------
A---6---5--------------7----7---6---5----------2-----------
E-4---3---b4r3-0---------5----4---3---b4r3-0---------------





off distortion
e---------------------------------------------------------
B------------------------------4---------------------------
G-----4-------4------4-----------4--------4-------4------4-
D---7---7---6------4---4---4------------7---7---6------4---
A-4-------4------7-------4---6--------4-------4------7-----
E----------------------------------------------------------

                play this part loosely
e-------------]--------------------------------------------
B---------4---]---------4---5-4------------4---5-4---------
G-----------4-]-----4----4-------------4----4------------4-
D-4---4-------]---7-------7------------------4---------7---
A---4---6-----]-4-----------------4h6----------------4-----
E-------------]--------------------------------------------
                                 Distortion ^ÓGone are^Å^Ô
                              Chords strummed continuously
                             even though it not tabbed like
                             that
e------------------------------]-0-----2-----0-----2-------
B---4---5-4------------4---5-4-]-0-----2-----0-----2-------
G----4-------------4----4------]-2-----4-----2-----4-------
D-----7------------------4-----]-2-----4-----2-----4-------
A-------------4h6--------------]-0-----2-----0-----2-------
E------------------------------]---------------------------
First Guitar solo:
e----------------------------------------------------------
B----------------------------------------------------------
G----------------------------------------------------------
D-/7---7-7-7---6-7^×6h7p6---6------------------------------
A------------------------9---9-7p6-7p6---------------------
E--------------------------------------7~--7-7/9^×-5~-------

e----------------------------------------------------------
B----------------------------------------------------------
G-------------------------------------------9-8~--8h9p8----
D-/9---7~--7--6-7-6h7p6---6--------------------------------
A----------------------h9---7-9-7p6-7p6~-------------------
E----------------------------------------------------------

e----------------------------------------------------------
B----------------------------------10-10----10h12-9-10-----
G-9b11-(11)r(9)-8h9-8-8---9p8-9/11-------------------------
D----------------------------------------------------------
A----------------------------------------------------------
E----------------------------------------------------------

e-12--11^×11h12p11-/14--]
B----------------------]
G----------------------]
D----------------------]
A----------------------]
E----------------------]


Second guitar solo:
e-/12---12---12-12---12-11--11--11-9^×-----9h11-------12----
B-----------------------------------------------10---------
G----------------------------------------------------------
D----------------------------------------------------------
A----------------------------------------------------------
E----------------------------------------------------------

e------12-------------------/12-----12---12-12----11------
B---10----10\9---------------------------------------------
G--------------11~-----------------------------------------
D----------------------------------------------------------
A----------------------------------------------------------
E----------------------------------------------------------
                                               hold bend
e-10--11---------------------------------------------------
B--------12----14---14---14-14--14--14---12----------------
G-------------------------------------------14b16~---16-16-
D----------------------------------------------------------
A----------------------------------------------------------
E----------------------------------------------------------

e----------------]
B----------------]
G-16-16~--16r14--]
D----------------]
A----------------]
E----------------]

Almost there ...

Sign in to get your own page with links to favourite songs and more. You are just one click away...

Login with Facebook Login with Google