Guitar Tabs Explorer
December Avenue bass tabs for Sa ngalan ng pag ibig

Sa Ngalan Ng Pag Ibig bass tab


4.5 / 5 [2 votes]

Sa Ngalan Ng Pag Ibig bass tab by December Avenue

Bass tabs with lyrics

Print

Tuning: Standard (E A D G)

Key: D

Difficulty: Advanced

*Do note that the timestamps are based on the official audio of the song and the live version of the song.

 Intro: 0:00
G|------------------------------|-------------------------------|
D|------------------------------|-------------------------------|
A|5-----5--5-----\2-----2--2----|-------------------------------|
E|------------------------------|2-----2--2-------3-----3--3---/|

G|------------------------------|-------------------------------|
D|------------------------------|-------------------------------|
A|5-----5--5-----\2-----2--2----|-------------------------------|
E|------------------------------|2-----2--2-------3-----3--3---/|


 Verse: 0:24
 "Hanggang kailan ako maghihintay na para bang wala ng papalit sayo?"
G|--------------------------------|--------------------------------|
D|--------------------------------|--------------------------------|
A|5---5---5---5--\2---2---2---2---|--------------------------------|
E|--------------------------------|2---2---2---2---3---3---3---3--/|

 "Nasan ka man, sigaw ng puso ko'y ikaw hanggang ngayon"
G|------------------------------------|--------------------------------------|
D|------------------------------------|--------------------------------------|
A|5---5---5-5---5---2---2---2-2---2---|-----------------------------------0-2|
E|------------------------------------|2---2---2-2---2---3---3---3-3---3-----|


 Pre-Chorus: 0:49
 "Kung sana lamang ay nakita mo ang lungkot sa'yong ngiti, isang umagang di ka nagbalik"
G|------------------------------------|------------------------------------|
D|------------------------------------|------------------------------------|
A|------------------------------------|------------------------------------|
E|0--0--0----0-0----2--2--2----2-2----|3--3--3----3-3----3--3--3----3-3----|

 "Gumising ka at ng makita mo, ang tamis ng sandali ng kahapong di magbabalik"
G|------------------------------------|----------------------------------|
D|------------------------------------|----------------------------------|
A|------------------------------------|----------------------------------|
E|0--0--0----0-0----2--2--2----2-2----|3--3--3----3-3----3-3-3-3-3-3-3-3-|


 Chorus: 1:13
 "Hanggang sa dulo ng ating walang hanggan, hanggang ang puso'y wala ng nararamdaman"
G|--------------------------------|--------------------------------|
D|--------------------------------|--------------------------------|
A|5-5-5-5-5-5-5-5\----------------|2-2-2-2-------------------------|
E|----------------3-3-3-3-3-3-3-3-|--------2-2-2-2-3-3-3-3-3-3-3-3-|

 "Kahit matapos ang magpakailan pa man, ako'y maghihintay sa ngalan ng pag-ibig"
G|--------------------------------|--------------------------------|
D|--------------------------------|--------------------------------|
A|5-5-5-5-5-5-5-5\----------------|2-2-2-2-------------------------|
E|----------------3-3-3-3-3-3-3-3-|--------2-2-2-2-3-3-3-3-3-3-3-3-|


 Verse: 1:38
 "Hanggang kailan ako maghihintay na para bang walang iba sa piling mo?"
G|--------------------------------------------|--------------------------------------------|
D|--------------------------------------------|--------------------------------------------|
A|5--5---5---5-5---5----2--2---2---2-2---2----|--------------------------------------------|
E|--------------------------------------------|2--2---2---2-2---2----3--3---3---3-3---3----|

 "Nasan ka man, sigaw ng puso ko ay ang pangalan mo"
G|------------------------------------------|-----------------------------------------|
D|----------------5-7-----------------------|-----------------------------------------|
A|5--5---5-----5-7-------2--2---2---2---0-2-|-----------------------------5-4-0-7-5-0-|
E|----------7-------------------------------|2--2---2---2--2--3---3---3---------------|


 Pre-Chorus: 2:02
 "Kung sana lamang ay nakita mo, ang lungkot sa'yong ngiti, isang umagang di ka nagbalik"
G|------------------------------------|------------------------------------|
D|------------------------------------|------------------------------------|
A|------------------------------------|------------------------------------|
E|0--0--0----0-0----2--2--2----2-2----|3--3--3----3-3----3--3--3----3-3----|

 "Gumising ka at ng makita mo, ang tamis ng sandali ng kahapong di magbabalik"
G|------------------------------------|----------------------------------|
D|------------------------------------|-----------------/5-5-5-5-5-5-5-5-|
A|------------------------------------|----------------------------------|
E|0--0--0----0-0----2--2--2----2-2----|3--3--3----3-3--------------------|


 Chorus: 2:27
 "Hanggang sa dulo ng ating walang hanggan, hanggang ang puso'y wala ng nararamdaman"
G|--------------------------------|--------------------------------|
D|--------------------------------|--------------------------------|
A|5-5-5-5-5-5-5-5\----------------|2-2-2-2-------------------------|
E|----------------3-3-3-3-3-3-3-3-|--------2-2-2-2-3-3-3-3-3-3-3-3-|

 "Kahit matapos ang magpakailan pa man, ako'y maghihintay sa ngalan ng pag-ibig"
G|--------------------------------|--------------------------------|
D|--------------------------------|--------------------------------|
A|5-5-5-5-5-5-5-5\----------------|2-2-2-2-------------------------|
E|----------------3-3-3-3-3-3-3-3-|--------2-2-2-2-3-3-3-3-3-3-3-3-|


 Bridge: 2:52
 "Hanggang kailan pa ba magtitiis? Nalunod na sa kaiisip, huling kapiling ka'y sa aking panaginip"
G|------------------------------------|------------------------------------|
D|------------------------------------|------------------------------------|
A|2--2-2-2--2-2--2--1--1-1-1--1-1--1--|0--0-0-0--0-0--0--------------------|
E|------------------------------------|------------------3--3-3-3--3-3--3--|

 "Ikaw mula noon, ikaw hanggang ngayon"
G|-------------------------------|--------------------------------|
D|-------------------------------|--------------------------------|
A|-------------------------------|3-------/10---------------------|
E|0------------------------------|--------------------------------|


 Chorus: 3:13
 "Hanggang sa dulo ng ating walang hanggan, hanggang ang puso'y wala ng nararamdaman"
G|-------------------------------|--------------------------------|
D|-------------------------------|--------------------------------|
A|-------------------------------|--------------------------------|
E|-----------------------------5/|7-7-7-7-7-7-7-7-3-3-3-3-3-3-3-3-|

 "Hanggang sa dulo ng ating walang hanggan, hanggang ang puso'y wala ng nararamdaman"
G|--------------------------------|--------------------------------|
D|--------------------------------|--------------------------------|
A|5-5-5-5-5-5-5-5-----------------|2-2-2-2-------------------------|
E|----------------3-3-3-3-3-3-3-3-|--------2-2-2-2-3-3-3-3-3-3-3-3-|

 "Kahit matapos ang magpakailan pa man, ako'y maghihintay sa ngalan ng pag-ibig"
G|--------------------------------|--------------------------------|
D|--------------------------------|--------------------------------|
A|5-5-5-5-5-5-5-5-----------------|2-2-2-2-------------------------|
E|----------------3-3-3-3-3-3-3-3-|--------2-2-2-2-3-3-3-3-3-3-3-3-|

 "Hanggang sa dulo ng ating walang hanggan, hanggang ang puso'y wala ng nararamdaman"
G|--------------------------------|--------------------------------|
D|--------------------------------|--------------------------------|
A|5-5-5-5-5-5-5-5-----------------|2-2-2-2-------------------------|
E|----------------3-3-3-3-3-3-3-3-|--------2-2-2-2-3-3-3-3-3-3-3-3-|

 "Kahit matapos ang magpakailan pa man, ako'y maghihintay sa ngalan ng pag-ibig"
G|--------------------------------|--------------------------------|
D|--------------------------------|--------------------------------|
A|5-5-5-5-5-5-5-5-----------------|2-2-2-2-------------------------|
E|----------------3-3-3-3-3-3-3-3-|--------2-2-2-2-3-3-3-3-3-3-3-3-|


 Outro: 4:15
G|-------------------------------|--------------------------------|
D|-------------------------------|--------------------------------|
A|-------------------------------|--------------------------------|
E|7------------2-----3-----------|7--------2--------3-------------|


************************************
      / - slide up
      \ - slide down
************************************

Comment this song and these bass tabs

Do you have corrections, comments on the bass tabs, thoughts about the song or a message to the author? Write them below.