Log in

One click and you are in

Login with Facebook Login with Google

Why sign up and log in

Guitar Tabs Explorer
December Avenue guitar tabs for Kung di rin lang ikaw

Guitar tabs

1st Verse
e|---------------------------|---------------------------|
B|-----1--0--------------1---|---0-----------------------|
G|---0------------0---0------|---0-------0----0----------|
D|-------------2-------------|-------2------------2------|
A|--------3------------------|---------------------------|
E|---------------------------|---0-----------------------|

e|---------------------------|---------------------------|
B|---------------------------|---------------------------|
G|-------0-------------------|---0-----------------------|
D|---3------3----2---2---0---|-------3--3----2----0------|
A|---------------------------|---------------------------|
E|---1-----------------------|---3-----------------------|

e|---------------------------|---------------------------|
B|------1---0-------------1--|---0-----------------------|
G|---0-------------0---0-----|---0-------0----0----------|
D|--------------2------------|--------2----------2-------|
A|----------3----------------|---------------------------|
E|---------------------------|---0-----------------------|

e|---------------------------|---------------------------|
B|---------------------------|---------------------------|
G|-------0-------------------|---0-----------------------|
D|---3------3----2--2---0---0|--------3---3----2h0-------|
A|---------------------------|---------------------------|
E|---1-----------------------|---3-----------------------|


Pre - Chorus
e|------0--------------------|---0-----------------------|
B|---1--------3---1h3--------|---0----3---3-----1h3------|
G|---------2-----------------|---------------------------|
D|------3--------------------|---------------------------|
A|---------------------------|---------------------------|
E|---------------------------|---3-----------------------|

e|---------0---1---0---------|-----------0---------------|
B|---1h3-------------3—3h1---|---1h3-----------3---3-----|
G|---------------------------|---------------------------|
D|---------------------------|-----------3---------------|
A|---------------------------|---------------------------|
E|---------0-----------------|---------------------------|

e|---------|
B|---1h3---|
G|---------|
D|---------|
A|---------|
E|---------|

Chorus
e|---------------------------|
B|--------3--1-0----3--3--1h3|
G|------0---------0----------|
D|---------------------------|
A|---3-----------------------|
E|----------------0----------|

e|---------0---1---0---------|-------------0-------------|
B|---1h3--------------3---3--|---1---1h3--------3--3—-1h3|
G|---------------------------|---------------------------|
D|---------------------------|---------------------------|
A|---------------------------|---------------------------|
E|---------1-----------------|-------------3-------------|

e|---------------------------|---------0---1---0---------|
B|--------3--1-0-----3--3—1h3|---1h3-------------3---3---|
G|------0---------0----------|---------------------------|
D|---------------------------|---------------------------|
A|---3-----------------------|---------------------------|
E|----------------0----------|---------1-----------------|

e|---------------------------|
B|---1--1---------1-----3----|
G|---------0--0--------------|
D|---------------------------|
A|---------------------------|
E|------------3--------------|

Strum
Strumming pattern
C- DDUUUD
Em- DDUUUD
F- DDUUUD
G- DDUUUD

2nd Verse
e|---------------------------|---------------------------|
B|------1--0-----------------|---1---0-------------------|
G|---0-----------0----0---0--|-------0------0----0---0---|
D|-------------2----2--------|------------2----2---------|
A|---------3-x------------x--|---------x-------------x---|
E|-----------x------------x--|-------0-x-------------x---|

e|---------------------------|---------------------------|
B|---------------------------|---------------------------|
G|---0-----------0-----------|---0-----------------------|
D|------2----3------3--2-2--0|-------3--3----2h0---------|
A|------------------x--------|---------------------------|
E|-----------1------x--------|---3-----------------------|

e|---------------------------|---------------------------|
B|------1--0-----------------|---1---3---1--0—0h1--------|
G|---0-------------0----0--0-|---------------------------|
D|--------------2-----2------|---------------------------|
A|---------3-x-------------x-|---------x-------x---------|
E|-----------x-------------x-|-------0-x-------x---------|

e|---0-----------------------|---0-----------------------|
B|-------3--3---1-1--------1-|--------3---3h1h3----------|
G|------------------2---2----|---------------------------|
D|---------------------------|---------------------------|
A|----------x-----------x----|----------x---------x------|
E|---1------x-----------x----|---3------x---------x------|

e|------0--------------------|---0-------------------s---|
B|------1--------1-----1—1h3-|-------3-3---1h3---3---t---|
G|---2--------2-----2--------|-----------------------r---|
D|------3--------------------|---3-------------------u---|
A|---------x-----------------|-----------x-----------m---|
E|---------x-----------------|-----------x-------3-------|

e|-------0--1h0------|---------0---------------------|
B|-1-1-3-----------3-|1--1--3--0-3--3--1h3-----------|
G|-----------------0-|-------------------------------|
D|-------------------|-------------------------------|
A|-------------------|-------------------------------|
E|-------0-----x---0-|---x-----3------x--------------|


Chorus
e|---------0-----------------|---------------------------|
B|-------0----3---------1----|-------3-3---1h3--------3--|
G|------------0-------0------|---0------------------0----|
D|---------------------------|---------------------------|
A|---3--------3--------------|-----------x-------------x-|
E|---------------------------|---0-------x-------0-----x-|

e|---------0--1--0-----------|---0-----------------------|
B|---1h3-----------3--3-1-1h3|------3--3----1h3-----3----|
G|---------------------------|--------------------0------|
D|---------------------------|---------------------------|
A|---------------x---------x-|------------x-----------x--|
E|---------1-----x----1----x-|---3--------x-----------x--|

e|--------0------------------|---------------------------|
B|------0----3---------1-----|------3--3-----1h3-----3---|
G|-----------0------0--------|---0-----------------0-----|
D|---------------------------|---------------------------|
A|---3-------3---------------|------------x-------------x|
E|---------------------------|---0--------x-------------x|

e|--------0--1--0------------|----------------------s----|
B|---1h3----------3--3-1--1h3|----------1--3---3----t----|
G|---------------------------|---0---0--------------r----|
D|---------------------------|----------------------u----|
A|--------------x----------x-|-------------x--------m----|
E|--------1-----x----1-----x-|-------3-----x-------------|


Bridge
e|---------0-------0--1------|---3---1--1---0------------|
B|-------1-------1-----3----3|-----------------3---3---1-|
G|-----2-------2----------2--|---------------------------|
D|---3-------3-----------3---|---------------------------|
A|---------------------------|------------x----------x---|
E|---------------------------|---3--------x----------x---|

e|-----0------------0--------|---3---1--1----0----------s|
B|---3------1---3-------1----|------------------3----3--t|
G|---------------------------|--------------------------r|
D|---------------------------|---3----------------------u|
A|-------x------------x------|-------------x------------m|
E|---0---x------0-----x------|-------------x---------3---|

e|-------0--1h0------|---------0---------------------|
B|-1-1-3-----------3-|1--1--3--0-3--3--1h3-----------|
G|-----------------0-|-------------------------------|
D|-------------------|-------------------------------|
A|-------------------|-------------------------------|
E|-------0-----x---0-|---x-----3------x--------------|


Chorus
e|--------0------------------|---------------------------|
B|------0----3--------1------|-------3--3----1h3------3--|
G|-----------0------0--------|---0------------------0----|
D|---------------------------|---------------------------|
A|---3-------3---------------|------------x-------------x|
E|---------------------------|---0--------x-------0-----x|

e|--------0---1---0----------|--------0--------------------|
B|---1h3-------------3--3--1-|---1h3-----3-3—--1h3------3--|
G|---------------------------|------------------------0----|
D|---------------------------|-----------------------------|
A|----------------x----------|---x-----------x------------x|
E|--------1-------x-----1----|---x----3------x------3-----x|

e|----------0----------------|---3----1-1---0------------|
B|---1----0----3---------1---|----------------3---3----1-|
G|-------------0-------0-----|---------------------------|
D|---------------------------|---------------------------|
A|-----3-------3-------------|----------------------x----|
E|---------------------------|---0--------------0---x----|

e|-------0-------------0-----|------3---1--1---0------0--|
B|---3--------1---3----------|---1----------------3------|
G|---------------------------|---------------------------|
D|---------------------------|---------------------------|
A|---------x--------------x--|---------------x-----------|
E|---1-----x------1-------x--|------3--------x------3----|

Strum
Strumming pattern
C- DDUUUD
Em- DDUUUD
F- DDUUUD
G- DDUUUD

e|-------0-------------------|-----------------0--1--0---|
B|----------3--1------3-3—1h3|--------3---1h3-----------3|
G|-----------------0---------|------0--------------------|
D|---------------------------|---------------------------|
A|---3-----------------------|---------------------------|
E|-----------------0---------|---0-------------1---------|

e|---------------------------|---------------------------|
B|---3---1-1---------1---3---|------------------1--------|
G|-------------0--0----------|--------------0------------|
D|---------------------------|----------2----------------|
A|---------------------------|------3--------------------|
E|---3------------3----------|---------------------------|

Other versions of Kung Di Rin Lang Ikaw

Kung di rin lang ikawChords
Kung di rin lang ikaw (Ver. 2)Chords
Kung di rin lang ikaw ukuleleChords

Almost there ...

Sign in to get your own page with links to favourite songs and more. You are just one click away...

Login with Facebook Login with Google