Log in

One click and you are in

Login with Facebook Login with Google

Why sign up and log in

Guitar Tabs Explorer
December Avenue guitar tabs for Kahit di mo alam acoustic

Guitar tabs with lyrics

  • Capo on 1st
Tuning: Standard (E A D G B E)

Key: A chord diagramBb majorBb

Difficulty: Novice
NOTE: This is the version of December Avenue performed on Wish 107.5 bus.
https://www.youtube.com/watch?v=_gBfO6BPLSw


A chord diagramAsus2Asus2 - x02200
Amaj7sus2 - x02100
Dmaj7sus - xx0220
D6sus2 - xx0200
A chord diagramF#m11F#m11 - 244200
A chord diagramDsus2Dsus2 - xx0230
A chord diagramE MajorE - 022100


Intro 1:

e|--------------------------|--------------------------|--------------------------|-------------|
B|--------------------------|--------------------------|--------------------------|-------------|
G|--6-----6-----6-----6-----|---4----4----4-----4------|--6-----6----6-----6------|---4---------|
D|--7-----7-----7-----7-----|---6----6----6-----6------|--7-----7----7-----7------|---6---------|
A|--0--0-----0-----0-----0--|------0----0----0---------|--5--5----5-----5-----5---|---5---------|
E|--------------------------|--------------------------|--------------------------|-------------|

    A chord diagramAsus2Asus2            Amaj7sus2               Dmaj7sus           D6sus2
e|--------------------------------------|-----------------------------------------|
B|------5-------------------5-----------|---------5------------------5------------|
G|---6---------4~-----4/6---------4~----|----6-----------4~-----6-----------4~----|
D|---------7-------------------7--------|-------------7------------------7--------|
A|--------------------------------------|-----------------------------------------|
E|--------------------------------------|-----------------------------------------|

Verse1:
      A chord diagramAsus2Asus2                                 Amaj7sus2
e|-----0--------------------------|----------0------------------------------------|
B|-----0--------------------------|----------0------------------------------------|
G|-----2--------------------------|----------1------------------------------------|
D|-----2--------------------------|----------2------------------------------------|
A|-----0--------------------------|----------0------------------------------------|
E|--------------------------------|-----------------------------------------------|
   Ipikit mo man ang iyong mata       Di pa rin naman mag-iiba

       Dmaj7sus                             D6sus2
e|-----0--------------------------|----------0------------------------------------|
B|-----2--------------------------|----------0------------------------------------|
G|-----2--------------------------|----------2------------------------------------|
D|-----0--------------------------|----------0------------------------------------|
A|--------------------------------|-----------------------------------------------|
E|--------------------------------|-----------------------------------------------|
     Nabalutan     ng    poot   ang    puso mo

      A chord diagramAsus2Asus2                                 Amaj7sus2
e|-------0------------------------|----------0------------------------------------|
B|-------0------------------------|----------0------------------------------------|
G|-------2------------------------|----------1------------------------------------|
D|-------2------------------------|----------2------------------------------------|
A|-------0------------------------|----------0------------------------------------|
E|--------------------------------|-----------------------------------------------|
  Tila malimit kang ngumiti ngayon    Di ka rin naman ganyan noon

       Dmaj7sus                             D6sus2
e|-----0--------------------------|----------0------------------------------------|
B|-----2--------------------------|----------0------------------------------------|
G|-----2--------------------------|----------2------------------------------------|
D|-----0--------------------------|----------0------------------------------------|
A|--------------------------------|-----------------------------------------------|
E|--------------------------------|-----------------------------------------------|
   Na ubusan    ng     tibok    ang   puso   mo


Refrain:
       A chord diagramF#m11F#m11                               A chord diagramDsus2Dsus2
e|--------0-----------------------|----------0------------------------------------|
B|--------0-----------------------|----------3------------------------------------|
G|--------2-----------------------|----------2------------------------------------|
D|--------4-----------------------|----------0------------------------------------|
A|--------4-----------------------|-----------------------------------------------|
E|--------2-----------------------|-----------------------------------------------|
  Kulang na ba ang mga ulap           Sa langit at buwan

       A chord diagramF#m11F#m11                                A chord diagramE MajorE
e|--------0-----------------------|----------0------------------------------------|
B|--------2-----------------------|----------0------------------------------------|
G|--------2-----------------------|----------1------------------------------------|
D|--------0-----------------------|----------2------------------------------------|
A|--------------------------------|----------2------------------------------------|
E|--------------------------------|----------0------------------------------------|
  Di ka na babalik     sa    lilim   ng   ulan


Chorus:
          A chord diagramAsus2Asus2                           Amaj7sus2
e|----------0---------------------|----------0------------------------------------|
B|----------0---------------------|----------0------------------------------------|
G|----------2---------------------|----------1------------------------------------|
D|----------2---------------------|----------2------------------------------------|
A|----------0---------------------|----------0------------------------------------|
E|--------------------------------|-----------------------------------------------|
  Sa bawat saglit                 Handang masaktan

               Dmaj7sus                A chord diagramE MajorE
e|-----------------0--------------|----0------------------------------------------|
B|-----------------2--------------|----0------------------------------------------|
G|-----------------2--------------|----1------------------------------------------|
D|-----------------0--------------|----2------------------------------------------|
A|--------------------------------|----2------------------------------------------|
E|--------------------------------|----0------------------------------------------|
     Kahit    di   mo     alam

          A chord diagramAsus2Asus2                           Amaj7sus2
e|----------0---------------------|----------0------------------------------------|
B|----------0---------------------|----------0------------------------------------|
G|----------2---------------------|----------1------------------------------------|
D|----------2---------------------|----------2------------------------------------|
A|----------0---------------------|----------0------------------------------------|
E|--------------------------------|-----------------------------------------------|
   Subukang muli                    At pagbigyan

               Dmaj7sus                A chord diagramE MajorE
e|-----------------0--------------|----0------------------------------------------|
B|-----------------2--------------|----0------------------------------------------|
G|-----------------2--------------|----1------------------------------------------|
D|-----------------0--------------|----2------------------------------------------|
A|--------------------------------|----2------------------------------------------|
E|--------------------------------|----0------------------------------------------|
    Ang  ating  nakaraan...               Kahit di mo na alam


Instrumental:

    A chord diagramAsus2Asus2            Amaj7sus2               Dmaj7sus           D6sus2
e|--------------------------------------|-----------------------------------------|
B|------5-------------------5-----------|---------5------------------5------------|
G|---6---------4~-----4/6---------4~----|----6-----------4~-----6-----------4~----|
D|---------7-------------------4--------|-------------7------------------7--------|
A|--------------------------------------|-----------------------------------------|
E|--------------------------------------|-----------------------------------------|


Verse 2:
      A chord diagramAsus2Asus2                                 Amaj7sus2
e|-----0--------------------------|----------0------------------------------------|
B|-----0--------------------------|----------0------------------------------------|
G|-----2--------------------------|----------1------------------------------------|
D|-----2--------------------------|----------2------------------------------------|
A|-----0--------------------------|----------0------------------------------------|
E|--------------------------------|-----------------------------------------------|
   Ipikit mo na ang iyong mata        Ang  nakaraa'y limutin na

       Dmaj7sus                             D6sus2
e|-----0--------------------------|----------0------------------------------------|
B|-----2--------------------------|----------0------------------------------------|
G|-----2--------------------------|----------2------------------------------------|
D|-----0--------------------------|----------0------------------------------------|
A|--------------------------------|-----------------------------------------------|
E|--------------------------------|-----------------------------------------------|
     Umaasang     di     ka     na     mawawala

          A chord diagramAsus2Asus2                            Amaj7sus2
e|----------0---------------------|----------0------------------------------------|
B|----------0---------------------|----------0------------------------------------|
G|----------2---------------------|----------1------------------------------------|
D|----------2---------------------|----------2------------------------------------|
A|----------0---------------------|----------0------------------------------------|
E|--------------------------------|-----------------------------------------------|
  Sadyang mahirap lang ngumiti ngayon   Minahal kita mula noon

       Dmaj7sus                             D6sus2
e|-----0--------------------------|----------0------------------------------------|
B|-----2--------------------------|----------0------------------------------------|
G|-----2--------------------------|----------2------------------------------------|
D|-----0--------------------------|----------0------------------------------------|
A|--------------------------------|-----------------------------------------------|
E|--------------------------------|-----------------------------------------------|
   Ibalik  na   ang     tibok    ng   puso   mo


Refrain:
       A chord diagramF#m11F#m11                               A chord diagramDsus2Dsus2
e|--------0-----------------------|----------0------------------------------------|
B|--------0-----------------------|----------3------------------------------------|
G|--------2-----------------------|----------2------------------------------------|
D|--------4-----------------------|----------0------------------------------------|
A|--------4-----------------------|-----------------------------------------------|
E|--------2-----------------------|-----------------------------------------------|
  Kulang na ba ang mga ulap           Sa langit at buwan

       A chord diagramF#m11F#m11                                A chord diagramE MajorE
e|--------0-----------------------|----------0------------------------------------|
B|--------2-----------------------|----------0------------------------------------|
G|--------2-----------------------|----------1------------------------------------|
D|--------0-----------------------|----------2------------------------------------|
A|--------------------------------|----------2------------------------------------|
E|--------------------------------|----------0------------------------------------|
  Di ka na babalik     sa    lilim   ng   ulan


Chorus:
          A chord diagramAsus2Asus2                           Amaj7sus2
e|----------0---------------------|----------0------------------------------------|
B|----------0---------------------|----------0------------------------------------|
G|----------2---------------------|----------1------------------------------------|
D|----------2---------------------|----------2------------------------------------|
A|----------0---------------------|----------0------------------------------------|
E|--------------------------------|-----------------------------------------------|
  Sa bawat saglit                 Handang masaktan

               Dmaj7sus                A chord diagramE MajorE
e|-----------------0--------------|----0------------------------------------------|
B|-----------------2--------------|----0------------------------------------------|
G|-----------------2--------------|----1------------------------------------------|
D|-----------------0--------------|----2------------------------------------------|
A|--------------------------------|----2------------------------------------------|
E|--------------------------------|----0------------------------------------------|
     Kahit    di   mo     alam

          A chord diagramAsus2Asus2                           Amaj7sus2
e|----------0---------------------|----------0------------------------------------|
B|----------0---------------------|----------0------------------------------------|
G|----------2---------------------|----------1------------------------------------|
D|----------2---------------------|----------2------------------------------------|
A|----------0---------------------|----------0------------------------------------|
E|--------------------------------|-----------------------------------------------|
   Subukang muli                    At pagbigyan

               Dmaj7sus                A chord diagramE MajorE
e|-----------------0--------------|----0------------------------------------------|
B|-----------------2--------------|----0------------------------------------------|
G|-----------------2--------------|----1------------------------------------------|
D|-----------------0--------------|----2------------------------------------------|
A|--------------------------------|----2------------------------------------------|
E|--------------------------------|----0------------------------------------------|
    Ang  ating  nakaraan...


Piano:

e|-----------------------------------------------------------------|
B|---------------------------5-----------------------5-------------|
G|-----------------------6------------4---------6------------4-----|
D|-------------------------------7-----------------------7---------|
A|-----------------------------------------------------------------|
E|-----------------------------------------------------------------|


Guitar:
          A chord diagramAsus2Asus2                              Amaj7sus2
e|----------0---------------------|-------------0------------------------------------|
B|----------0---------------------|-------------0------------------------------------|
G|----------2---------------------|-------------1------------------------------------|
D|----------2---------------------|-------------2------------------------------------|
A|----------0---------------------|-------------0------------------------------------|
E|--------------------------------|--------------------------------------------------|
  Kahit    di    mo   na    alam


Piano:

e|-----------------------------------------------------|
B|------------5--------------------------5-------------|
G|--------6------------4------------6------------4~----|
D|----------------7--------------------------7---------|
A|-----------------------------------------------------|
E|-----------------------------------------------------|

Guitar:
             Dmaj7sus                       D6sus2
e|---------------0----------------|----------0------------------------------------|
B|---------------2----------------|----------0------------------------------------|
G|---------------2----------------|----------2------------------------------------|
D|---------------0----------------|----------0------------------------------------|
A|--------------------------------|-----------------------------------------------|
E|--------------------------------|-----------------------------------------------|
       Kahit    di    mo   na   alam              Kahit di mo na..


Instrumental: Rapid Downstrokes

    A chord diagramF#m11F#m11             A chord diagramDsus2Dsus2                     A chord diagramF#m11F#m11               A chord diagramE MajorE
e|---6-------8------10-------13-----|----------------------------------------6----|
B|----------------------------------|---13------18------10------8------6----------|
G|---3-------5------7--------10-----|----------------------------------------3----|
D|----------------------------------|---10------15------7-------5------3----------|
A|----------------------------------|---------------------------------------------|
E|----------------------------------|---------------------------------------------|

    A chord diagramF#m11F#m11            A chord diagramDsus2Dsus2               A chord diagramF#m11F#m11            A chord diagramE MajorE
e|---6--------8--------10-------13--|----------------------13---------------------|
B|----------------------------------|-----13------10------------------------------|
G|---3--------5--------7--------10--|----------------------10---------------------|
D|----------------------------------|-----10------7-------------------------------|
A|----------------------------------|---------------------------------------------|
E|----------------------------------|---------------------------------------------|


Chorus:
          A chord diagramAsus2Asus2                           Amaj7sus2
e|----------0---------------------|----------0------------------------------------|
B|----------0---------------------|----------0------------------------------------|
G|----------2---------------------|----------1------------------------------------|
D|----------2---------------------|----------2------------------------------------|
A|----------0---------------------|----------0------------------------------------|
E|--------------------------------|-----------------------------------------------|
  Sa bawat saglit                 Handang masaktan

               Dmaj7sus                A chord diagramE MajorE
e|-----------------0--------------|----0------------------------------------------|
B|-----------------2--------------|----0------------------------------------------|
G|-----------------2--------------|----1------------------------------------------|
D|-----------------0--------------|----2------------------------------------------|
A|--------------------------------|----2------------------------------------------|
E|--------------------------------|----0------------------------------------------|
     Kahit    di   mo     alam

          A chord diagramAsus2Asus2                           Amaj7sus2
e|----------0---------------------|----------0------------------------------------|
B|----------0---------------------|----------0------------------------------------|
G|----------2---------------------|----------1------------------------------------|
D|----------2---------------------|----------2------------------------------------|
A|----------0---------------------|----------0------------------------------------|
E|--------------------------------|-----------------------------------------------|
   Subukang muli                    At pagbigyan

               Dmaj7sus                A chord diagramE MajorE
e|-----------------0--------------|----0------------------------------------------|
B|-----------------2--------------|----0------------------------------------------|
G|-----------------2--------------|----1------------------------------------------|
D|-----------------0--------------|----2------------------------------------------|
A|--------------------------------|----2------------------------------------------|
E|--------------------------------|----0------------------------------------------|
    Ang  ating  nakaraan...               Kahit di mo na alam

      A chord diagramAsus2Asus2                                 Amaj7sus2
e|-----0--------------------------|----------0------------------------------------|
B|-----0--------------------------|----------0------------------------------------|
G|-----2--------------------------|----------1------------------------------------|
D|-----2--------------------------|----------2------------------------------------|
A|-----0--------------------------|----------0------------------------------------|
E|--------------------------------|-----------------------------------------------|
   (Ipikit mo man ang iyong mata       Di pa rin naman mag-iiba)
                                                       Kahit di mo na alam

       Dmaj7sus                             D6sus2
e|-----0--------------------------|----------0------------------------------------|
B|-----2--------------------------|----------0------------------------------------|
G|-----2--------------------------|----------2------------------------------------|
D|-----0--------------------------|----------0------------------------------------|
A|--------------------------------|-----------------------------------------------|
E|--------------------------------|-----------------------------------------------|
     (Nabalutan     ng    poot   ang    puso mo)
                                                     Kahit di mo na alam

      A chord diagramAsus2Asus2                                 Amaj7sus2
e|-----0--------------------------|----------0------------------------------------|
B|-----0--------------------------|----------0------------------------------------|
G|-----2--------------------------|----------1------------------------------------|
D|-----2--------------------------|----------2------------------------------------|
A|-----0--------------------------|----------0------------------------------------|
E|--------------------------------|-----------------------------------------------|
   (Ipikit mo na ang iyong mata        Ang  nakaraa'y limutin na)
                                                      Kahit di mo na alam

       Dmaj7sus                             D6sus2
e|-----0--------------------------|----------0------------------------------------|
B|-----2--------------------------|----------0------------------------------------|
G|-----2--------------------------|----------2------------------------------------|
D|-----0--------------------------|----------0------------------------------------|
A|--------------------------------|-----------------------------------------------|
E|--------------------------------|-----------------------------------------------|
     (Umaasang     di     ka     na     mawawala)
                                              Kahit di mo na.. Kahit di mo na alam




************************************

| /  Slide up
| ~  Vibrato

************************************

Other versions of Kahit Di Mo Alam Acoustic

Kahit di mo alamChords
Kahit di mo alam (Ver. 2)Chords

Almost there ...

Sign in to get your own page with links to favourite songs and more. You are just one click away...

Login with Facebook Login with Google