Log in

One click and you are in

Login with Facebook Login with Google

Why sign up and log in

Guitar Tabs Explorer
December Avenue guitar chords for Kahit di mo alam (Ver. 2)

Kahit Di Mo Alam chords by December Avenue (Ver. 2)

December Avenue guitar chords for Kahit di mo alam (Ver. 2)

Guitar chords with lyrics

  • Capo on 1st
Tuning: Standard (E A D G B E)

Key: A chord diagramA majorA

Difficulty: Intermediate

************************************
| / Slide up
| ~ Vibrato
| * Ring Once
************************************

A chord diagramAsus2Asus2 - x02200
Amaj7sus2 - x02100
Dmaj7sus - xx0220
D6sus2 - xx0200
A chord diagramF#m11F#m11 - 244200
A chord diagramDsus2Dsus2 - xx0230
A chord diagramE MajorE - 022100


Intro 1:

e|--9-----9-----9-----9-----|--9-----9-----9-----9-----|--9-----9-----9-----9-----|--9-----9-----9-----9-----|
B|--10----10----10----10----|--10----10----10----10----|--10----10----10----10----|--10----10----10----10----|
G|--------------------------|--------------------------|--------------------------|--------------------------|
D|--------------------------|--------------------------|--------------------------|--------------------------|
A|--0--0--0--0--0--0--0--0--|--0--0--0--0--0--0--0--0--|--0--0--0--0--0--0--0--0--|--0--0--0--0--0--0--0--0--|
E|--------------------------|--------------------------|--------------------------|--------------------------|

e|--------------------------|--------------------------|--------------------------|--------------------------|
B|--------------------------|--------------------------|--------------------------|--------------------------|
G|--6-----6-----6-----6-----|--4-----4-----4-----4-----|--6-----6-----6-----6-----|--4-----------------------|
D|--7-----7-----7-----7-----|--6-----6-----6-----6-----|--7-----7-----7-----7-----|--6-----------------------|
A|--0--0--0--0--0--0--0--0--|--0--0--0--0--0--0--0-----|--5--5--5--5--5--5--5--5--|--5-----------------------|
E|--------------------------|--------------------------|--------------------------|--------------------------|

  A chord diagramAsus2Asus2      Amaj7sus2        Dmaj7sus      D6sus2
e|--------------------------------------|-----------------------------------------|
B|-----5-------------------5------------|---------5------------------5------------|
G|--6---------4~--4--4/6----------4~----|----6-----------4~--4--4/6---------4~----|
D|--------7-------------------7---------|-------------7-----------------7---------|
A|--------------------------------------|-----------------------------------------|
E|--------------------------------------|-----------------------------------------|

Verse I:
   A chord diagramAsus2Asus2
Ipikit mo man ang iyong mata
      Amaj7sus2
Di pa rin naman mag-iiba
    Dmaj7sus               D6sus2
Nabalutan ng poot ang puso mo
       A chord diagramAsus2Asus2
Tila malimit kang ngumiti ngayon
      Amaj7sus2
Di ka rin naman ganyan noon
    Dmaj7sus                D6sus2
Na ubusan ng tibok ang puso mo


Refrain:
          A chord diagramF#m11F#m11
Kulang na ba ang mga ulap
   A chord diagramDsus2Dsus2
Sa langit at buwan
         A chord diagramF#m11F#m11
Di ka na babalik
            A chord diagramE MajorE
Sa lilim ng ulan


Chorus:
            A chord diagramAsus2Asus2
Sa bawat saglit
             Amaj7sus2
Handang masaktan
         Dmaj7sus  A chord diagramE MajorE
Kahit di mo alam
           A chord diagramAsus2Asus2
Subukang muli
         Amaj7sus2
At pagbigyan
            Dmaj7sus  A chord diagramE MajorE
Ang ating nakaraan

Kahit di mo na alam


Instrumental:

  A chord diagramAsus2Asus2      Amaj7sus2        Dmaj7sus      D6sus2
e|--------------------------------------|-----------------------------------------|
B|-----5-------------------5------------|---------5------------------5------------|
G|--6---------4~--4--4/6----------4~----|----6-----------4~--4--4/6---------4~----|
D|--------7-------------------7---------|-------------7-----------------7---------|
A|--------------------------------------|-----------------------------------------|
E|--------------------------------------|-----------------------------------------|


Verse II:
   A chord diagramAsus2Asus2
Ipikit mo na ang iyong mata
      Amaj7sus2
Ang nakaraa'y limutin na
   Dmaj7sus             D6sus2
Umaasang di ka na mawawala
          A chord diagramAsus2Asus2
Sadyang mahirap lang ngumiti ngayon
    Amaj7sus2
Minahal kita mula noon
    Dmaj7sus                D6sus2
Ibalik na ang tibok ng puso mo


Refrain:
          A chord diagramF#m11F#m11
Kulang na ba ang mga ulap
   A chord diagramDsus2Dsus2
Sa langit at buwan
         A chord diagramF#m11F#m11
Di ka na babalik
            A chord diagramE MajorE
Sa lilim ng ulan


Chorus:
            A chord diagramAsus2Asus2
Sa bawat saglit
             Amaj7sus2
Handang masaktan
         Dmaj7sus  A chord diagramE MajorE
Kahit di mo alam
           A chord diagramAsus2Asus2
Subukang muli
         Amaj7sus2
At pagbigyan
            Dmaj7sus  A chord diagramE MajorE
Ang ating nakaraan
                 A chord diagramAsus2Asus2
Kahit di mo na alam

Amaj7sus2              Dmaj7sus
   Kahit  di  mo  na  alam
D6sus2
    Kahit di mo na..


Instrumental:
A chord diagramF#m11F#m11    A chord diagramDsus2Dsus2    A chord diagramF#m11F#m11    A chord diagramE MajorE
A chord diagramF#m11F#m11    A chord diagramDsus2Dsus2    A chord diagramF#m11F#m11    A chord diagramE MajorE


Chorus:
            A chord diagramAsus2Asus2
Sa bawat saglit
             Amaj7sus2
Handang masaktan
         Dmaj7sus  A chord diagramE MajorE
Kahit di mo alam
           A chord diagramAsus2Asus2
Subukang muli
         Amaj7sus2
At pagbigyan
            Dmaj7sus  A chord diagramE MajorE
Ang ating nakaraan
                 A chord diagramAsus2Asus2
Kahit di mo na alam
                (Ipikit mo man ang iyong mata)
        Amaj7sus2
              Kahit di mo na alam
(Di pa rin naman mag-iiba)
   Dmaj7sus        D6sus2
(Nabalutan ng poot ang puso mo)
                A chord diagramAsus2Asus2    Amaj7sus2
Kahit di mo na alam
                (Ipikit mo na ang iyong mata)
                               Dmaj7sus
                Kahit di mo na
(Ang nakaraa'y limutin na)
                         D6sus2
          Kahit di mo na
(Umaasang di ka na mawawala)
      E*             Asus2*
Kahit di mo na alam

Other versions of Kahit Di Mo Alam

Kahit di mo alamChords
Kahit di mo alam acousticTabs

Almost there ...

Sign in to get your own page with links to favourite songs and more. You are just one click away...

Login with Facebook Login with Google