Guitar Tabs Explorer
December Avenue guitar tabs for In vivo morning moon and night

In Vivo Morning Moon And Night tab


Be the first to rate

In Vivo Morning Moon And Night tab by December Avenue

Guitar tabs

Print

Solo:
e|----------------------------------------------------------------------------|
B|--9----8-----9--8--8----6----8----------------------------------------------|
G|-------------------7----7------7--8----7---5---7/10-10----------------------|
D|----------------------------------7-----------------12-------6--------------|
A|----------------------------------------------------------6-----------------|
E|----------------------------------------------------------------------------|

e|----------------6--6--------------------------------------------------------|
B|--9----8-----9-----8---8-6---8-------------------------------9---8----------|
G|-------------------------------7--8---7---5----7/10-10-------10-------------|
D|----------------------------------7-----------------12----12-12-------------|
A|----------------------------------------------------------------------------|
E|----------------------------------------------------------------------------|

e|------------6-----------------------------6-----------------------------6---|
B|----------8-----9-8-6---8-6-------------8-----9-8-6---8-6---8---------8-----|
G|--7-8-7-8-------------7-----7-8-7-8-7-8-------------7-----7---7-8-7-8-------|
D|----8-----------------------------------------------------------------------|
A|----------------------------------------------------------------------------|
E|----------------------------------------------------------------------------|

e|----------------------------6--/8-------------------------------------------|
B|--9-8-6---8-6-------------8--------8---6-----6---4-----8---6-----8---6------|
G|--------7-----7-8-7-8-7-8----------5-----5---3-----3---5-----5---5-----7----|
D|-----------------------------------5---------5---------5---------6----------|
A|-----------------------------------6-------------------6--------------------|
E|----------------------------------------------------------------------------|
                                        ~tr
e|----------------------------------------------------------------------------|
B|--8---6-----6---4-----4----8--6--9--8--11-----------------------------------|
G|--5-----5---3-----3-----3--5-----6------8-----------------------------------|
D|--5---------5-------5------5-----6------8-----------------------------------|
A|--6------------------------6-----8-----10ss---------------------------------|
E|----------------------------------------------------------------------------|