Guitar Tabs Explorer
December Avenue guitar tabs for Fallin

Fallin tab


Be the first to rate

Fallin tab by December Avenue

Guitar tabs

Print
December Avenue - Fallin'
Tabbed by Jaemart Enriquez

Effects: Distortion
gain: low

Amp settings:
bass: 5
middle: 7
treble: 6

Chords:
C#m chord diagramC#mC#m - D chord diagramDD - F#m chord diagramF#mF#m - E chord diagramEE


Intro:

e|---------------------------------------------------------------------------|
B|---------------------------------------------------------------------------|
G|---2/9~---------------------------------13-13\9~---------------------------|
D|---x-x----------------------------------x--x--x----------------------------|
A|---4/7~---------------------------------11-11\7~---------------------------|
E|---------------------------------------------------------------------------|

e|---------------------------------------------------------------------------|
B|---------------------------------------------------------------------------|
G|---14\13-7/9~---------------------14\13--7/9\7\6\4~------------------------|x2
D|---x--x--x-x----------------------x--x---x-x-x-x-x-------------------------|
A|---12\11-5/7~---------------------12\11--5/7\5\4\2~------------------------|
E|---------------------------------------------------------------------------|


Verse:

e|-----------------|--------------|----------------|---------------------------|
B|-------------5---|--------5-----|------------5---|---------------------------|
G|-------4--6------|-----4--------|------4--6------|---9------9------9--11-----|
D|----7------------|--7-------7---|---7------------|-----6--7---6--7-------9---|
A|-----------------|--------------|----------------|---------------------------|
E|-----------------|--------------|----------------|---------------------------|
*Play in the part of "As I wait in time I dream of us together" Listen carefully for the timing.


Pre-Chorus:

e|--0-------------------------------------------------------------------------|
B|--2-------------------------------------------------------------------------|
G|--2------------------------------------------4--6---------9-11---7-6--------|
D|--0-------------------------------------------x--x--------------7-----------|
A|--0------7~-2~-4~--------------------4~-5~---2--4--4------------------------|
E|--0-----------------2~---------2~--5~---------------2-----------------------|
*Play in the part of "Cause I need you now" Listen carefully for the timing.


Chorus:

e|-------------------------------------------------------|
B|-------------------------------------------------------|
G|-----9------9------9----9--------9-------9-------------|x2
D|-------7------7------------7--------7------------------|
A|---------------------9--------7--------7---------------|
E|---9-----10-----10-------------------------------------|


Pre-Verse:

e|------------------|
B|------------------|
G|--9\2~------------|
D|--x-x-------------|
A|--7\0~------------|
E|------------------|


Verse 2: *piano
no guitar lead


Pre-Chorus:

e|--0-------------------------------------------------------------------------|
B|--2-------------------------------------------------------------------------|
G|--2------------------------------------------4--6---------9-11---7-6--------|
D|--0-------------------------------------------x--x--------------7-----------|
A|--0------7~-2~-4~--------------------4~-5~---2--4--4------------------------|
E|--0-----------------2~---------2~--5~---------------2-----------------------|
*Play in the part of "Cause I need you now" Listen carefully for the timing.


Chorus:

e|-------------------------------------------------------|
B|-------------------------------------------------------|
G|-----9------9------9----9--------9-------9-------------|x2
D|-------7------7------------7--------7------------------|
A|---------------------9--------7--------7---------------|
E|---9-----10-----10-------------------------------------|


Bridge:

e|--0-----------0--------------|
B|--2---5~------2---5~---------|
G|--2------6~---2------2~------|
D|--0-----------2--------------|
A|--0-----------0--------------|
E|--0-----------2--------------|


Solo:
*piano
play Chorus part


Chorus:

e|-------------------------------------------------------|
B|-------------------------------------------------------|
G|-----9------9------9----9--------9-------9-------------|x2
D|-------7------7------------7--------7------------------|
A|---------------------9--------7--------7---------------|
E|---9-----10-----10-------------------------------------|


************************************

x = dead note
~ = let it ring
/ = slide up
\ = slide down

Other versions of Fallin

FallinChords

Comment this song and these guitar tabs

Do you have corrections, comments on the guitar tabs, thoughts about the song or a message to the author? Write them below.