Guitar Tabs Explorer
December Avenue guitar tabs for Eroplanong papel intro

Eroplanong Papel Intro tab


Be the first to rate

Eroplanong Papel Intro tab by December Avenue

Guitar tabs

Print

-------------------------------------------------------------------------------
                             EROPLANONG PAPEL - December Avenue
-------------------------------------------------------------------------------
Tabbed by: Jay Sering
E chord diagramEE-mail: jagelosering@ymail.com

Tuning: standard

Part 1 - Clean Slight Delay

e|---------------------------------------------------------------------------------------|
B|-----12h13---12h13--12---------------12h13--12h13--12----15-----15-----15--------------|
G|--12-------------------12---------12------------------12------12----12-----------------|
D|-------------------------14~-----------------------------------------------------------|
A|---------------------------------------------------------------------------------------|
E|---------------------------------------------------------------------------------------|

e|---------------------------15-----15---15-----------12-12------------------------------|
B|-----12h13---12h13--12------------------------------------15--15--13--13--12--12-------|
G|--12--------------------12-----12----12--------------------------------------------12--|
D|---------------------------------------------------------------------------------------|
A|---------------------------------------------------------------------------------------|
E|---------------------------------------------------------------------------------------|

Part 2 Distortion
e|---------------------------------------------------------------------------------|
B|---------------------------------------------------------------------------------|
G|----------------------------------------------------12+~--------------/14~-------|
D|----/10-10--9--------/10-10--9----------/10-10--9---------/10-10--9--------------|
A|--------------10~--------------10~-----------------------------------------------|
E|---------------------------------------------------------------------------------|


************************************

| /   slide up
| \   slide down
| h   hammer-on
| p   pull-off
| ~   vibrato
| +   harmonic
| x   Mute note
| b   Bend
| pb  Pre-bend
| br  Bend release
| pbr Pre-bend release
| brb Bend release bend

************************************

Pangalawang tab ko palang po kaya d ako 100% sure. Paki-comment nlang po ng mga corrections.

Comment this song and these guitar tabs

Do you have corrections, comments on the guitar tabs, thoughts about the song or a message to the author? Write them below.