Search tabs and chords

Search for song, artist or band

Log in

One click and you are in

Login with Facebook Login with Google

Why sign up and log in

Guitar Tabs Explorer
December Avenue guitar tabs for Bloodless corleone

Guitar tabs

Intro:
(This part goes from 0'35)
e|-----------------------5-4-3-2----------------------------------------------|
B|-----6--------6-------------------3--3p2---2h3-----3-----3-----2------------|
G|--7-----7--6-----6-5-4---------2---------3-----3-2---2-3---1-2---/7---------|
D|----------------------------------------------------------------------------|
A|----------------------------------------------------------------------------|
E|----------------------------------------------------------------------------|

e|-----------------------5-4-3-2--------------------------------------------------|
B|-----6--------6-------------------3--3p2---2h3-----3-----3-----3-----2------5---|
G|--------7--6-----6-5-4---------2---------3-----3-2---2-3---3-1---1-2---2-/6---6-|
D|--------------------------------------------------------------------------------|
A|--------------------------------------------------------------------------------|
E|--------------------------------------------------------------------------------|

(all part x2)
then

(This part is arranged for single chords though it's actually played in octavs)
    ~tr
e|--------------5------------5--10-9--6--5---10---13-12-10-9---5--------------|
B|--5---6---8-------6--5-------------------------------------------6--5-------|
G|------------------------7----------------------------------------------7----|
D|----------------------------------------------------------------------------|
A|----------------------------------------------------------------------------|
E|----------------------------------------------------------------------------|

e|--5--10-9--6--5---10---13-12-10-9-------------------------------------------|
B|----------------------------------------------------------------------------|
G|----------------------------------------------------------------------------|
D|----------------------------------------------------------------------------|
A|----------------------------------------------------------------------------|
E|----------------------------------------------------------------------------|

Almost there ...

Sign in to get your own page with links to favourite songs and more. You are just one click away...

Login with Facebook Login with Google