Log in

One click and you are in

Login with Facebook Login with Google

Why sign up and log in

Guitar Tabs Explorer
Death Note bass tabs for Death note main theme

Death Note Main Theme bass tab by Death Note

Death Note bass tabs for Death note main theme

Bass tabs

Death Note - Death Note (Track 1 of OST)


Intro/Main Part:

G |--------------------------------------|  G |--------------------------------------|
D |--------------------------------------|  D |--------------------------------------|
A |--------------------------------------| x3 A |--------------------------------------|
E |--6--------8--------4--------6--------|  E |--6--------8--------4--------3--------|

Guitar becomes more distorted:
                                          Build Up
G |-----------------------------------------------------------------------------------------------------|
D |-----------------------------------------------------------------------------------------------------|
A |-----------------------------------------------------------------------------------------------------|
E |--1--------1--------6---------8--------4--------6--------6--------8--------4--------6-6-6-6-6-6-6-6--|

Loud Part 1: (Guitar 2 Enters)

G |-------------------------------------------------------------------------------------|
D |-------------------------------------------------------------------------------------|
A |-------------------------------------------------------------------------------------|
E |--6--------8--------4--------6---------6--------8--------4--------3-3-3-3-3-3-3-3-3--|

Loud Part 2: (Guitar 2 starts to string bend)

G |---------------------------------------------------------|
D |---------------------------------------------------------|
A |---------------------------------------------------------|
E |--1----1----1----1----4-4-4-4-4-4-4-4-4-3-3-3-3-3-3-3-3--|

G |--------------------|
D |--------------------|
A |--------------------|
E |--1----1----1----1--|


G |-------------------------------------------------------------------------------------|
D |-------------------------------------------------------------------------------------|
A |-------------------------------------------------------------------------------------|
E |--6--------8--------4--------6---------6--------8--------4--------3-3-3-3-3-3-3-3-3--|

Guitar 2 string bends until end:

G |------------------------|
D |------------------------|
A |------------------------|
E |--1----1----1----1~~~~--|

Almost there ...

Sign in to get your own page with links to favourite songs and more. You are just one click away...

Login with Facebook Login with Google