GuitarTabsExplorer icon
GuitarTabsExplorer icon

Log in

Songbook

  • Log in to add and see bookmarks

Last visited songs

    No songs visited yet...

I Will Follow by Death Cab For Cutie

Tabs

Artist: Death Cab for Cutie
Song:  I Will Follow
Album: Plans


*IMPORTANT!* Death Cab plays this with a capo on the 5th fret!
If you do not use a capo you will not be playing the song in
the correct key! Tonally, the song is in Dm.. not Am.

Rhythm Notes: Light palm muting on the larger strings, while
allowing the b string to ring out.


Part I - INTRO/CHORUS (Capo 5th)

  Chord diagramA minorAm       Chord diagramC majorC        Chord diagramFF        Chord diagramC majorC    Chord diagramG/BG/B
e|-------------------------------|-------------------------------|
b|-------1--------------1--------|------1---------------1-----3--|
g|-----2----2---2-----0----0---0-|----------2---2-----0-----0----|
d|-2----------2----2---------2---|----3-------3------------------|
a|-0---------------3-------------|-3---------------3------2------|
Chord diagramE MajorE|-------------------------------|-1-----------------------------|
  Chord diagramA minorAm       Chord diagramC majorC        Chord diagramG+G
e|-------------------------------|-------------------------------|
b|-------1--------------1--------|------3--------3-------3-------|
g|-----2----2---2-----0----0---0-|---------0--------0-------0----|
d|-2----------2----2---------2---|---0--------0--------0-------0-|
a|-0---------------3-------------|-------------------------------|
Chord diagramE MajorE|-------------------------------|-3-----------------------------|


  Chord diagramA minorAm       Chord diagramC majorC        Chord diagramE MajorE        Chord diagramA minorAm   Chord diagramAm/GAm/G
e|-------------------------------|-------------------------------|
b|-------1--------------1--------|------0---------------1------1-|
g|-----2----2---2-----0----0---0-|----------1---1-----2------2---|
d|-0h2--------2----2---------2---|----2-------2-------2------2---|
a|-0---------------3-------------|-2---------------0-------------|
Chord diagramE MajorE|-------------------------------|-0-----------------------3-----|


  Chord diagramFF        Chord diagramF minorFm       Chord diagramC majorC
e|-------------------------------|-------------------------------|
b|------1----------1----1--------|-------1--------------1--------|
g|----------2---2--1-------1---1-|-----0----0---0-----0----0---0-|
d|----3-------3----3--3------3---|-2----------2----2---------2---|
a|-3---------------3-------------|-3---------------3-------------|
Chord diagramE MajorE|-1---------------1-------------|-------------------------------|

Part II - VERSES (Capo 5th)
Note: Repeat this sequence as often as necessary.

  Chord diagramC majorC                Chord diagramA minorAm
e|-------------------------------|-------------------------------|
b|-------1--------------1--------|-------1--------------1--------|
g|-----0----0---0-----0----0---0-|-----2----2---2-----2----2---2-|
d|-2----------2----2---------2---|-2----------2----2---------2---|
a|-3---------------3-------------|-0---------------0-------------|
Chord diagramE MajorE|-------------------------------|-------------------------------|


  Chord diagramFF                Chord diagramC majorC        Chord diagramG+G
e|-------------------------------|-------------------------------|
b|------1---------------1--------|-------1--------------3--------|
g|----------2---2----------2---2-|-----0----0---0----------0---0-|
d|----3-------3-------3------3---|-2----------2-------0------0---|
a|-3---------------3-------------|-3-----------------------------|
Chord diagramE MajorE|-1---------------1-------------|-----------------3-------------|


Part III - ENDING (Capo 5th)
Note: Replace last two bars of CHORUS with these.

  Chord diagramFF        Chord diagramF minorFm       Chord diagramC majorC     Chord diagramC/BC/B Chord diagramA minorAm    Chord diagramAm/GAm/G
e|-------------------------------|-------------------------------|
b|------1----------1----1--------|-------1--------------1--------|
g|----------2---2--1-------1---1-|-----0----0---0-----2----0---0-|
d|----3-------3----3--3------3---|-2---------------2-------------|
a|-3---------------3-------------|-3----------2----0-------------|
Chord diagramE MajorE|-1---------------1-------------|---------------------------3---|


  Chord diagramFF        Chord diagramF minorFm       Chord diagramC majorC
e|-------------------------------|-------------------------------|
b|------1----------1-------------|-1-----------------------------|
g|----------2---2--1-------------|-0-----------------------------|
d|----3-------3----3-------------|-2-----------------------------|
a|-3---------------3-------------|-3-----------------------------|
Chord diagramE MajorE|-1---------------1-------------|-------------------------------|


Questions, Comments.. [email protected]

_________________________________________________________________

Other versions of I Will Follow

Alternative guitar chords and tabs for I Will Follow by Death Cab For Cutie

VersionType
I will follow you into the darkChords
I will follow you into the darkTabs
I will follow you into the dark (Ver. 2)Chords
I will follow you into the dark ukuleleChords

[ Privacy | About us ]

Welcome to the guitar community

Why join and log in?
- Get songbook with favourite songs
- Get custom made front page
- Submit chords and tabs
- Submit guitar-cover videos
- Get a lot of thumbs up for your work

Songbook

Last visited songs

Site
Home
Search
Community
Submit chords

Video

No video for this page. Check out how you can submit guitar-cover videos here

Search tabs and chords

Browse by artist

A B C D E F G H I J K L M N O P Q R S T U V W X Y Z #


Menu

Search

Video

Bookmark

Login