GuitarTabsExplorer icon
GuitarTabsExplorer icon

Log in

Songbook

  • Log in to add and see bookmarks

Last visited songs

    No songs visited yet...

I Was A Kaleidoscope by Death Cab For Cutie

Tabs

"I Was Chord diagramA augmentedA Kaleidoscope" by Death Cab For Cutie
Album:The Photo Album
Tabbed by Riccardo Castellan ([email protected])


Intro/verse

e --------------------------------------------------------------------|
b ----------------(3)-------------------------------------------------|
g -2---------------2-------------------------------7---------------2--|
d -2-------------0-0---------0-4---2-----0---0-----7---------------2--|(x3)
a -0-------0-2-4---------0-4-----0---------4---0-4/5-----4-2-4-2---0--|
Chord diagramE MajorE -------0-------------------------------------------------------4----|

When he begins to sing, there's a second guitar that do this for 4 times:
e -----------------------------------------|
b ---5-5-5-5-5-5-5-5-7-7-7-7-7-7-7-7--9----|
g -----------------------------------------|
d -----------------------------------------|
a -----------------------------------------|
Chord diagramE MajorE -----------------------------------------|

and they were grouped...
e --------------------------------------------------------------------|
b --------------------------------------------------------------------|
g -2---------------2-------------------------------7---------------2--|
d -2-------------0-0---------0-4---2-----0---0-----7-------------2-2--|
a -0-------0-2-4---------0-4-----0---------4---0-4/5-----4-4-----0-0--|
Chord diagramE MajorE -------0------------------------------------------------------------|

cars on slippery...
e --------------------------------------------------------------------|
b --------------------------------------------------------------------|
g ----------------2-------------------------------7----------------2--|
d --------------0-0---------0-4---2-----0---0-----7----------------2--|
a --------0-2-4---------0-4-----0---------4---0-4/5-----4-2-4-2----0--|
Chord diagramE MajorE ------0--------------------------------------------------------4----|

to feel it soaking...               i took to your
apartment
e --------------------------------------------------------------------|
b --------------------------------------------------------------------|
g -------------2-----------------------------------------6-6----------|
d -----------0-0---------0-4---2-----0---0-----7---7-7---7-7---7-7--7-|
a -----0-2-4---------0-4-----0---------4---0-4/5---5-5---5-5---5-5--5-|
Chord diagramE MajorE ---0----------------------------------------------------------------|


verse 2 (it's not right,but sounds good)
e --------------------------------------------------------------------|
b -5-5-5-5-5-5-5-5--5-5-5-5-5-5-5-5--2-2-2-2-2-2-2-2--5-5-5-5-5-5-5-5-|
g -6-6-6-6-6-6-6-6--6-6-6-6-6-6-6-6--2-2-2-2-2-2-2-2--6-6-6-6-6-6-6-6-|
d -7-7-7-7-7-7-7-7--7-7-7-7-7-7-7-7--4-4-4-4-4-4-4-4--7-7-7-7-7-7-7-7-|(x2)
a -0-0-0-0-0-0-0-0--5-5-5-5-5-5-5-5--2-2-2-2-2-2-2-2--5-5-5-5-5-5-5-5-|
Chord diagramE MajorE --------------------------------------------------------------------|

verse 1 (x1)
then                  ...to address as all your lips
moved
e --------------------------------------------------------------------|
b --------------------------------------------------------------------|
g -------------2-----------------------------------------6-6----------|
d -----------0-0---------0-4---2-----0---0-----7---7-7---7-7---7-7--7-|
a -----0-2-4---------0-4-----0---------4---0-4/5---5-5---5-5---5-5--5-|
Chord diagramE MajorE ---0----------------------------------------------------------------|

verse 2 (x2)
then
     ...this ain't working anymore
      -----
      --7--
      --7--
      --7--
      --5--
      -----

solo
e --------------------------------------------------------------------|
b --------------------------------------------------------------------|
g -2---------------2--------------------1-1--/2-2-------4-4--1--------|
d -2-------------0-0---------0-4---2-2-------------4-4----------------|
a -0-------0-2-4---------0-4-----0------------------------------------|
Chord diagramE MajorE -------0------------------------------------------------------------|

e --------------------------------------------------------------------|
b --------------------------------------------------------------------|
g -2---------------2------------------------------------------------2-|
d -2-------------0-0---------0-4---2-2--0-0---0---------------------2-|
a -0-------0-2-4---------0-4-----0----------4---0-4-5-5-4-4-2-4-2---0-|
Chord diagramE MajorE -------0--------------------------------------------------------4---|
they got their mothers...
e --------------------------------------------------------------------|
b --------------------------------------------------------------------|
g --7-7----7-7----6-6----7-7-7-7--4-4----6-6-6-4--4-4----6-6-6-4------|
d --7-7----9-9----7-7----9-9-9-7--4-4----4-4-4-4--4-4----4-4-4-4------|(x2)
a --5-5----5-5----5-5----5-5-5-5--2-2----2-2-2-2--2-2----2-2-2-2------|
Chord diagramE MajorE --------------------------------------------------------------------|


 ...and i got........left there,too
e ------------------------|
b --2-2-2-2-2-2-2-2---/7--|
g --2-2-2-2-2-2-2-2---/7--|
d --4-4-4-4-4-4-4-4---/7--|
a --4-4-4-4-4-4-4-4---/5--|
Chord diagramE MajorE --2-2-2-2-2-2-2-2-------|


e ---------------------------------------------------------------------|
b ---------------------------------------------------------------------|
g -2---------------2-------------------------------------------------2-|
d -2-------------0-0---------0-4---2-2--0-0----0---------------------2-|
a -0-------0-2-4---------0-4-----0-----------4---0-4-5-5-4-4-2-4-2---0-|
Chord diagramE MajorE -------0---------------------------------------------------------4---|

i put on my overcoat...
e ---------------------------------------------------------------------|
b ---------------------------------------------------------------------|
g ---------------2-------------------------------7---------------2-----|
d -------------0-0---------0-4---2-----0---0-----7---------------2-----|
a -------0-2-4---------0-4-----0---------4---0-4/5-----4-2-4-2---0-----|
Chord diagramE MajorE -----0-------------------------------------------------------4-------|

and they were grouped...
e -------------------------------------------------
b -------------------------------------------------
g ---------------2---------------------------------
d -------------0-0--------0-4---2----0---0---------
a -------0-2-4--------0-4-----0--------4---0-4/5---
Chord diagramE MajorE -----0-------------------------------------------

 ...from me  to me
e -----------------------------------------------|
b -----------------------------------------------|
g -----------------------------------------------|
d --------------------6-6--7-7--9-9--11-11--14\0-|
a ----2-2/7---4-4/9------------------------------|
Chord diagramE MajorE -----------------------------------------------|





That's all.
I try to do my best; if someone find any mistake, please e-mail me !

[ Privacy | About us ]

Welcome to the guitar community

Why join and log in?
- Get songbook with favourite songs
- Get custom made front page
- Submit chords and tabs
- Submit guitar-cover videos
- Get a lot of thumbs up for your work

Songbook

Last visited songs

Site
Home
Search
Community
Submit chords

Video

No video for this page. Check out how you can submit guitar-cover videos here

Search tabs and chords

Browse by artist

A B C D E F G H I J K L M N O P Q R S T U V W X Y Z #


Menu

Search

Video

Bookmark

Login