Log in

One click and you are in

Login with Facebook Login with Google

Why sign up and log in

Guitar Tabs Explorer
Death bass tabs for The philosopher

Bass tabs with lyrics

Death - The Philosipher
from Individual Thought Patterns

Tune down one whole step D, G, C, F low to high

|----------------|-------------------------|---------------------------|
|----------------|--9----9--7--5--9--7-----|--5------------------------|
|----7-----------|----------------------9--|--------------2--4---------|
|----------------|-------------------------|---------------------------|
|----------------|-------------|--------------------------|-------------|
|----------------|-------------|--9----9--7--5--9--7------|-5-----------|
|--6-------------|--7----------|-----------------------9--|------2----4-|
|----------------|-------------|--------------------------|-------------|


|------------|-----------------|------------------------------------------|
|------------|-----------------|------------------------------------------|
|--6---------|-----------------|------------------------------------------|
|------------|-7\-----0----2---|-1----1--1--1--1----1--1--1--1--1--1--1--1|


|------------|--------------------------------------|------------------|
|------------|---------------------------3--3--3--3-|------------------|
|------------|------------------2--2--2-------------|------------------|
|--7\--0--2--|-1----1--1--1--1----------------------|---7\--0--2-------|


1st & 2nd verses

|-----------------|------------------------------------------|----------|
|-----------------|------------------------------------------|----------|
|-----------------|------------------------------------------|----------|
|-7\-----0----2---|-1----1--1--1--1----1--1--1--1--1--1--1--1|-7\--0--2-|

|-----------------|------------------------------------------|----------|
|-----------------|------------------------------------------|----------|
|-----------------|------------------------------------------|----------|
|-7\-----0----2---|-1----1--1--1--1----1--1--1--1--1--1--1--1|-7\--0--2-|


|------------------------------------------|----------|------------------------------------------|
|------------------------------------------|----------|------------------------------------------|
|------------------------------------------|----------|------------------------------------------|
|-1----1--1--1--1----1--1--1--1--1--1--1--1|-7\--0--2-|-1----1--1--1--1----1--1--1--1--1--1--1--1|


pre-chorus
|-------------------------------------|---------------------------------|
|-------------------------------------|---------------------------------|
|---------------7-------------6--7--9-|--------------7-------------2--4-|
|--0---0--0--0-------0--0--0----------|-0---0--0--0-------0--0--0-------|


|-----------------------------------|--------------------|--------------
|-----------------------------------|--------------------|--------------
|--------------7--------------------|------6-------------|--------------
|-4---4--4--4-------4--4--4----4--4-|-4---------0--3--3--|-4---4--4--4--


-----------------------|---------------------|
-----------------------|---------------------|
--7--------------------|-------6-------------|
-------4--4--4----4--4-|--4---------0--3--3--|



Chorus

|--------------------------------|-------------------------------------|
|--------------------------------|-------------------------------------|
|---------------7--6-----6-------|------------------7--6-----2--4------|
|-0--7\2--0--0--------0-----0--7-|-0--3/5--2--0--0--------0------------|


|--------------------------------|---------------------|----------------
|--------------------------------|-----------------/5--|----------------
|-------------7------------------|------6--------------|-------------7--
|-4--4--4--4-------4--4--4--4--4-|-4--------0--3-------|-4--4--4--4-----


-----------------|----------------|
-----------------|----------------|
-----------------|----6-----------|
--4--4--4--4--4--|-4------0--3--3-|


Interlude

|--------9--10-9-------------------------|-5--4-------------------------
|-7--10-----------10--7--10--9--7--9--10-|-------7--5-----------------5-
|----------------------------------------|-------------7--3-----3--7----
|----------------------------------------|-------------------3----------


--4--5-|----7-----7-----7--5--4-----5--4----|-7--5-----7--5-----5/14\---|
-------|-5-----5-----5-----------7--------7-|-------7--------7----------|
-------|------------------------------------|---------------------------|
-------|------------------------------------|---------------------------|


Guitar Solo

||-----------------------------------------------|----------------------
||o----------------------------------------------|----------5-----------
||o--------------------------------------------2-|-3--3--3-----3--3--3--
||---5--5--5--5--5--5--5--5--5--5--5--5--5--5----|----------------------


----------------|------------------------------------|------------------
--------5-------|------------------------------------|----------7-------
--3--3-----3--3-|----------5-----------------5-------|-5--5--5-----5--5-
----------------|-3--3--3-----3--3--3--3--3-----3--3-|------------------


--------------------||
-----------7-------o||
--5--5--5-----5--5-o|| repeat
--------------------||


|--------------------------------|-------------------------------------|
|----------5---------------------|----------5--------------------------|
|----------------------------12\-|-3--3--3-----3--3--3--3--3--12\------|
|-5--5--5-----5--5--5--5--5------|-------------------------------------|


|------------------------------------|----------------------------------|
|------------------------------------|----------7-----------------7-----|
|----------5-----------------5-------|-5--5--5-----5--5--5--5--5-----5-5|
|-3--3--3-----3--3--3--3--3-----3--3-|----------------------------------|


|---/4-------------|----------------------|--------------|--/4---------|
|---------/3-------|---/6---------5----7--|--5---4-------|--------/3---|
|------------------|---------7------------|-----------5--|-------------|
|------------------|----------------------|--------------|-------------|


|--------------------|-----------|
|--------6-----5--9--|--5--4-----|
|-----6-----7--------|--------5--|
|--4-----------------|-----------|


Bridge

||-----/4-----------|---------------------|---------------||
||o------------/3---|---------6-----5--9--|---5--4-------o||
||o-----------------|------6-----7--------|---------5----o||
||------------------|---4-----------------|---------------||


|--/4----------|--------------------|----------------------------------|
|----------/3--|--------6-----5--9--|----------------------------------|
|--------------|-----6-----7--------|----------------------------------|
|--------------|--4-----------------|-----7----------0---------2-------|


Bass and guitar solos

|--------7--9--9--7-----------------------------------------------------
|--7--8--------------8------8---------/10\8------8--7-------------------
|------------------------------8-----------------------10--8--7---------
|---------------------------------6------------------------------10--8--


--------------|-------------------------9--10--12/15/17p15h17p15--------
--------------|--9h10p9------9--10--12----------------------------------
--------------|----------12---------------------------------------------
--6--6--6--6--|---------------------------------------------------------

                     begin slow fade
---------------------12h14p12--15--13\--|----------------|-------------|
--17p15p14\12h14h15---------------------|----------------|-------------|
----------------------------------------|----------------|-------------|
----------------------------------------|--0--0--1-------|--0----1-----|


|-----2--2-----2--2-----3----3p0--3p0--3---5*--/12---------------------|
|----------------------------------------------------------------------|
|--0--------0--------0-------------------------------------------------|
|----------------------------------------------------------------------|


|-9\7\----------------------------------9~--------------9--------------|
|-9\7\---------------------------6--------------9--11------------------|
|---------7--7--7-------------8-----8----------------------------------|
|--------------------7--6----------------------------------------------|


|-------------------|-----------------|
|-------------------|-----------------|
|-------------------|-----------------|
|--0----1-----------|----0-----1------|


h = hammeron          Judy Letostak
p = pulloff           Internet letostak@ix.netcom.com
/\ = slide           Fidonet 1:202/762
x = ghost note         MetalNet 666:666/2
t = tap (right hand)      The Music Shop BBS (619)423-4970 24hrs
~ = vibrato           * = picked harmonic
bf = bend full         tr = trill
rb = release bend        p.s. = pick scrape
dive = dive with bar      b = bend / step written over note

The Music Shop BBS (619)423-4970 24hrs
Guitar Tab, Bass Tab, Lyrics, Sound Files, Pictures, BRE...LORD...FidoNet...
MetalNet...In a band? Want some exposure? I have a file area for bands
will take anything that can be put on a computer...Lyrics, pictures, sound
files, gig ads...email me or call my bbs. It's free, and access is free.
Also have a menu for band to put up Biographies, reviews of shows, demos,
gig advertisements, and you can sell your demo/CD here as well...And it's

Almost there ...

Sign in to get your own page with links to favourite songs and more. You are just one click away...

Login with Facebook Login with Google