Log in

One click and you are in

Login with Facebook Login with Google

Why sign up and log in

Guitar Tabs Explorer
Death tabs for Evil dead

Guitar tabs with lyrics

"Evil Dead" by Death

Tune down: (6)=D


Intro:
           Gtr I
A chord diagramE MajorE|------||-----10-----------10---------|-----10-----------10---------|
A chord diagramBB|------||---8-----8--10-11----11-10---|---8-----8--10-11----11-10---|
A chord diagramG+G|------||o----------------------------|-----------------------------|
A chord diagramD MajorD|--x/--||o--5-------------------------|--(5)------------------------|
A chord diagramA augmentedA|------||---5-------------------------|--(5)------------------------|
A chord diagramD MajorD|------||---5-------------------------|--(5)------------------------|
           Gtr II
|----10-----------10---------|-----10-----------10---------|
|--8-----8--10-11----11-10---|---8-----8--10-11----11-10---|
|----------------------------|-----------------------------|
|--3-------------------------|--(3)------------------------|
|--3-------------------------|--(3)------------------------|
|--3-------------------------|--(3)------------------------|


|----10-----------10---------|-----10-----------10---------|
|--8-----8--10-11----11-10---|---8-----8--10-11----11-10---|
|----------------------------|-----------------------------|
|--1-------------------------|--(1)------------------------|
|--1-------------------------|--(1)------------------------|
|--1-------------------------|--(1)------------------------|


|----10-----------10---------|-----10-----------10----------||
|--8-----8--10-11----11-10---|---8-----8--10-11----11-10----||
|----------------------------|-----------------------------o||
|--0-------------------------|--(0)------------------------o||
|--0-------------------------|--(0)-------------------------||
|--0-------------------------|--(0)-------------------------||

   slow trill                         Gtr I Out
|----------------------------|------------------|-------------|
|--8(10)--------------8------|--(8)-------------|-------------|
|----------------------------|------------------|-------------|
|--5-------------------------|--(5)-------------|-----/x\-----|
|--5-------------------------|--(5)-------------|-----/x\-----|
|--5-------------------------|--(5)-------------|-----/x\-----|


Riff A:
||------------------------------||
||------------------------------||
||o--------7-----8-----7-------o||  Repeat 7x
||o--------7-----8-----7-------o||
||---------5-----6-----5--5/6---||
||---5--------5-----5-----5/6---||
     |        |     |
     |________|_____|______  mute & tremolo pick
                             these notes


Riff B:
||-----------------------------|-----------------------------------|
||-----------------------------|-----------------------------------|
||o--5-----------7-------------|---8------10---8---7---------------|
||o--5-----------7-------------|---8------10---8---7---------------|
||---3-----------5-------------|---6------8----6---5---------------|
||-----------------------------|-----------------------------------|


|-----------------------------|------------------------------------||
|-----------------------------|------------------------------------||
|---5-----------7-------------|---8------10---8---7---------------o||
|---5-----------7-------------|---8------10---8---7---10---8---7--o||
|---3-----------5-------------|---6------8----6---5---10---8---7---||
|-----------------------------|-----------------------10---8---7---||


Continue:  Riff A chord diagramA augmentedA (4x), Riff B, Riff A chord diagramA augmentedA (4x), etc

 - Ky (kmacphe1@ua1vm.ua.edu)


** EVIL DEAD
** by DEATH
** off the album SCREAM BLOODY GORE
** Transcribed (Not that this one was too complex anyway!) by K.Phillips
   email : kphill@iconz.co.nz

EVIL DEAD - A chord diagramA augmentedA pretty Epic sounding song, and damn easy to play too!
Of course, I do not guarantee that this transcription is 100% correct, but
I reckon that it is pretty damn close!  Most of you will probably have no
trouble working it out yourself, but hell, there are always those of us who
are just beginning and appreciate anything that others can give!

Format :
[i]  First the RIFFS
[ii] Then the structure of the song


EVIL DEAD - RIFFS:

(NOTE : RIFF A chord diagramA augmentedA is for 2 guitars!)


RIFF A: Lead Bit Guitar 1
e:-12--------------12--------------|
b:-----10--12--13------13--12--10--|
g:---------------------------------|
D:---------------------------------|
A:---------------------------------|
E:---------------------------------|


RIFF A: Guitar 2
e:-----| -----| -----| -----|
b:-----| -----| -----| -----|
g:-----| -----| -----| -----|
D:--7--| --5--| --3--| --2--|
A:--7--| --5--| --3--| --2--|
E:--5--| --3--| --1--| --0--|


RIFF B:
e:----------------------------------|
b:----------------------------------|
g:----------------------------------|
D:-------14------15------14--9--10--|
A:-0000--12--00--13--00--12--7--8---|
E:----------------------------------|
   xxxx      xx      xx


RIFF C:
e:----------------------|----------------------------|
b:----------------------|----------------------------|
g:----------------------|----------------------------|
D:-7---9---10--12-10-9--|-7---9---10--12-10-9-7-5-4--|
A:-5---7----8--10--8-7--|-5---7----8--10--8-7-5-3-2--|
E:----------------------|----------------------------|


EVIL DEAD - STRUCTURE:

** Introduction:

RIFF A:  Repeat x 2

(On the end of the second repeat, Lead bit is a trill (10-12-10-12- ? ) where
other guitar holds an A chord diagramA augmentedA Power chord (ie. The very first one played in RIFF A!))

Pick slide noises, then:


RIFF B: Repeat x 8


RIFF C: Once


RIFF B: Repeat x 4


RIFF C: Once


RIFF B: Repeat x 4

** Lead Break:

RIFF C: Once


RIFF B: Repeat x 4


RIFF C: Once


RIFF B: Repeat x 4
(Hold Chord on Last one)


RIFF B: Repeat x 8


RIFF C: Once


RIFF B: Repeat x 4


RIFF C: Once


and END.. Simple huh!  Now, how about transcribing that Lead break!

(Enjoy!  See ya soon with some OBITUARY, F&J, and some HEATHEN! (I hope!))

Kev.  8)

Almost there ...

Sign in to get your own page with links to favourite songs and more. You are just one click away...

Login with Facebook Login with Google