Log in

One click and you are in

Login with Facebook Login with Google

Why sign up and log in

Guitar Tabs Explorer
The Dead Weather bass tabs for The difference between us

The Difference Between Us bass tab - The Dead Weather

The Dead Weather bass tabs for The difference between us

Bass tabs

Hey,
I made this tab for the people that haven't Guitar Pro.
The two most important parts are written down (synth & bass).

Synthesizer intro:

E||-----0--12--------0--12-----|
B||----------------------------|
G||----------------------------|
D||--2------------2------------|
A||----------------------------|
E||------------0------------0--|

Synthesizer (rest of the song)

-----0--12--------5--17-----|
----------------------------|
---------------2------------|
--2-------------------------|
----------------------------|
------------0------------0--|

--------8--------1--13-----|
-----1---------------------|
---------------------------|
--------------3------------|
--3------------------------|
-----------0------------0--|

In some parts the synthesizer goes back to the intro.

Bass:

Intro:
 H
--------------------|--------------------|
-----------7--------|--------------------|
--7-----------------|-----------8--------|
--------------------|--8-----------------|

Pre Chorus:
  E Q
|-------------------------|------------------------|
|*-------------7--7-------|-----------------------*|
|*--7--7------------------|-------------8--8------*|
|-------------------------|--8--8------------------|


Chorus:
  E
|---------------------------|--------------------------|
|*--------------7--7--7--7--|--------------------------|
|*--7--7--7--7--------------|--------------8--8--8--8--|
|---------------------------|--8--8--8--8--------------|


Bridge:
   S S E  S S S S S S S S S E.
|-----------------------------------------|
|*----------------------------------------|
|*----------------------------------------|
|---10-12-12--12-12-12-12-12-10-7-5-3-0---|


  S S E  S S S S S S S S S E.
----------------------------------------|
----------------------------------------|
----------------------------------------|
--10-12-12--12-12-12-12-12-10-7-5-3-0---|


  S S E  S S S S S S S S S E.
----------------------------------------|
----------------------------------------|
----------------------------------------|
--10-12-12--12-12-12-12-12-10-7-5-3-0---|


  S S E  S S S S S S S S S E.
-----------------------------------------||
----------------------------------------*||
----------------------------------------*||
--10-12-12--12-12-12-12-12-10-7-5-3-0----||


Good luck practicing!

Almost there ...

Sign in to get your own page with links to favourite songs and more. You are just one click away...

Login with Facebook Login with Google