Log in

One click and you are in

Login with Facebook Login with Google

Why sign up and log in

Guitar Tabs Explorer
Dead Or Alive bass tabs for Absolutely nothing

Bass tabs

Tuning: 0

Difficulty: 0

Tabbed by: bassm99
E-mail: alanmatthews1966@yahoo.co.uk

"Absolutely Nothing" From the album "Sophisticated Boom Boom" (1984)
Written by Dead Or Alive

Bass Starts 0:07
Intro: (Play 6 Times)

G|---9-9-9-9---------7-7----------------------------------------------------|
D|-------------9-9----------------------------------------------------------|
A|--7-7-7-7---------5-5-----------------------------------------------------|
E|------------7-7-----------------------------------------------------------|


Verse: (Play 8 Times)

G|---9-9-9-9---------7-7----------------------------------------------------|
D|-------------9-9----------------------------------------------------------|
A|--7-7-7-7---------5-5-----------------------------------------------------|
E|------------7-7-----------------------------------------------------------|


Chorus: (Play 4 Times)

G|---9-9-9-9---------7-7----------------------------------------------------|
D|-------------9-9----------------------------------------------------------|
A|--7-7-7-7---------5-5-----------------------------------------------------|
E|------------7-7-----------------------------------------------------------|

Repeat Intro: (Play Twice)

Repeat Verse: (Play 4 Times)

Repeat Chorus: (Play 8 Times)

Repeat Intro: (Play Twice)


Bridge: (Play 4 Times)

G|---9-9-9-9---------7-7----------------------------------------------------|
D|-------------9-9----------------------------------------------------------|
A|--7-7-7-7---------5-5-----------------------------------------------------|
E|------------7-7-----------------------------------------------------------|

Repeat Chorus: (Play 8 Times)

Repeat Bridge: (No Bass 2:48 - 3:23)

Repeat Chorus: (Play 15 Times)

End:

G|---9-9-9-9----------------------------------------------------------------|
D|--------------------------------------------------------------------------|
A|--7-7-7-7-----------------------------------------------------------------|
E|--------------------------------------------------------------------------|

Almost there ...

Sign in to get your own page with links to favourite songs and more. You are just one click away...

Login with Facebook Login with Google