Log in

One click and you are in

Login with Facebook Login with Google

Why sign up and log in

Guitar Tabs Explorer
Dead Eye Dick tabs for New age girl

Guitar tabs

Off the dumb and dumber sound track.
This a really fun song to play! so enjoy! oh yeah listen to the
song for timings, aight! :)

Intro  (Clean distortion)        2x
||----------------------------------|
||----------------------------------|
||*--------------------------------*|
||*--------------------------------*|
||-----4-5-----------------2-0------|
||---5------------2-3--2-3----------|




Verse (palm mute)		 4x
||----------------------------------|
||----------------------------------|
||*--------------------------------*|
||*--------------------------------*|
||-----4-5-----------------2-0------|
||---5------------2-3--2-3----------|


Guitar two (i didn't figure it out yet)


Pre-Chorus    A chord diagramDmDm	8x
||--------------------------||
||--------------------------||
||*------------------------*||
||*---------2--------------*||
||--------------3-----------||
||------------1-------------||



Chorus 			 4x     Then
||---------------------------------||-----------------||
||---------------------------------||-----------------||
||*----------5---7---5------------*||-----------------||
||*------5---5---7---5------------*||---5-------3-----||
||-------5---3---5---3-------------||---5-------3-----||
||-------3-------------------------||---3-------1-----||



Bridge                2x
||------------------------||
||------------------------||
||*----------------------*||
||*----------------------*||
||---------------2--------||
||---0---7---3---0--------||


Tabbed by: Mohammed Fayek
Corrections, suggestions, whatever you wanna say , Mail me at
Kossabouk@hotmail.com.

Almost there ...

Sign in to get your own page with links to favourite songs and more. You are just one click away...

Login with Facebook Login with Google