GuitarTabsExplorer icon
GuitarTabsExplorer icon

Log in

Songbook

  • Log in to add and see bookmarks

Last visited songs

    No songs visited yet...

Song Of The Dispossessed by Dead Can Dance

Tabs

TAB:Song of the Dispossessed by Dead Can Dance
Chord diagramA augmentedA weird song form the album Spiritchaser (1996).
With influencia latina, it seems that in any moment Tito Puente
and Celia Cruz will be singing ;-)
But the lyrics are african.
GTML issue #5
Tabbed and transcribed by Avelino Andretti Benavides
Suscriptions (GTML), comments, corrections, requests or contributions to:
mailto://[email protected]
http://www-lce.cem.itesm.mx/alumnos/al448482/

   Riff 1 Gtr. 1
||------------------|--------------------|--------------------|---------
||------------------|--------------------|--------------------|---------
||*-----------------|--------------------|--------------------|---------
||*--------0--1--0--|-----------0-----0--|-----------0--1--0--|---------
||------1-----------|--1-----0-----3-----|--------1-----------|--1------
||---3--------------|-----2--------------|--2--3--------------|---------
  End Riff 1    Riff 2 Gtr. 1
----------------||--||---11--10--8--11--10--8--11--10--|--11--10--8-----
------------R---||--||---------------------------------|----------------
------------E--*||--||*--------------------------------|----------------
------0-----S--*||--||*--------------------------------|----------------
---0-----3--T---||--||---------------------------------|----------------
2---------------||--||---------------------------------|----------------
             Arrangement for guitar from piano.


11--10--8--11--10--|--11--10--8--11--10--8--11--10--|--11--10--8--10----
-------------------|--------------------------------|-------------------
-------------------|--------------------------------|-------------------
-------------------|--------------------------------|-------------------
-------------------|--------------------------------|-------------------
-------------------|--------------------------------|-------------------


         End Riff 2        Riff 2 Grt. 2
14--11--10--8---||-----------------------||-----------------------------
----------------||-----------------------||-----------------------------
---------------*||-----------------------||*----------------------------
---------------*||-----------------------||*----------------------------
----------------||-----------------------||-----------------------------
----------------||-----------------------||-----------------------------


x--x--x--x--x--x--x--x--|--x--x--x--x--x--x--x--x--|--x--x--x--x--x-----
------------------------|--------------------------|--------------------
------7--------8--------|--------7--------8--------|--------7-----------
------7--------7--------|--------7--------7--------|--------7-----------
------------------------|--------------------------|--------------------
------------------------|--------------------------|--------------------
X means note played by Gtr.1

                      End Riff 2
x--x--x--|--x--x--x--x--x--x--x--x--x---||------------------------------
---------|-----------------6------------||------------------------------
8--------|--------7--------7-----------*||------------------------------
7--------|--------7--------------------*||------------------------------
---------|------------------------------||------------------------------
---------|------------------------------||------------------------------
Flute fill
(0)\5--3--2----------2h3p2-----3--2---------------|---------------------
-------------4--(4)---------4--------4--3--(3)/1--|---------------------
--------------------------------------------------|---------------------
--------------------------------------------------|---------------------
--------------------------------------------------|---------------------
--------------------------------------------------|---------------------
Flute arranged for guitar

                      End Flute
(0)\5--3--2----------2h3p2-----3\5--3/2--||-----------------------------
-------------4--(4)---------4------------||-----------------------------
-----------------------------------------||-----------------------------
-----------------------------------------||-----------------------------
-----------------------------------------||-----------------------------
-----------------------------------------||-----------------------------


  Chord diagramDmDm  Chord diagramAsus2Asus2  Chord diagramG minorGm  Chord diagramF#7F#7
E---2--|--0--|-----3--|--2--||------------------------------------------
B---3--|--0--|-----3--|--2--||------------------------------------------
G---2--|--2--|-----3--|--3--||------------------------------------------
D---0--|--2--|-----5--|--2--||------------------------------------------
A---0--|--0--|-----5--|--4--||------------------------------------------
E---x--|--0--|-----3--|--2--||------------------------------------------
  Chords.
Lyrics:
 Song of the Dispossessed


Secuence:Repeat several times riff1-riff2x4-riff1(12 string guitar)x2[and
 under, the Flute part]-riff1x2+end(chords)
Repeat the chords with another guitar or with synth with every mensure.
Guitar one is acoustic (Clasica española) and guitar two is a 12 string.


========================================================================
==            TABLATURE EXPLANATION            ==
========================================================================

----------        ----------        ----t---
----5h8--- Hammeron    ----(8)--- Ghost     ----6--- Tap
----------        ---------- Note      --------
----5p8--- Pulloff    ----------        --------

----------        ----------        -----p--
----5/8--- Slide Up    -----x---- Dead      -----7-- Pop
----------        ---------- Note      --s-----
----5\8--- Slide Down   ----------        --5----- Slap

----------        ||------|| Repeat     --------
----5~~~-- Vibrato    ||*----*||        ---5^--- Bend
----------        ||*----*||        --------
----------        ||------||        --------

----------        ----------        --------
-4:------- Time      ----------        --------
-4:------- Signature   ----------        --------
----------        ----------        --------

[ Privacy | About us ]

Welcome to the guitar community

Why join and log in?
- Get songbook with favourite songs
- Get custom made front page
- Submit chords and tabs
- Submit guitar-cover videos
- Get a lot of thumbs up for your work

Songbook

Last visited songs

Site
Home
Search
Community
Submit chords

Video

No video for this page. Check out how you can submit guitar-cover videos here

Search tabs and chords

Browse by artist

A B C D E F G H I J K L M N O P Q R S T U V W X Y Z #


Menu

Search

Video

Bookmark

Login