Log in

One click and you are in

Login with Facebook Login with Google

Why sign up and log in

Guitar Tabs Explorer
Dc Talk tabs for So help me god

Guitar tabs

Album: Jesus Freak
Submitted by Justin Shaddock (Hogman@seark.net)
INTRO:
E-----------------------------------------------------3p2--2------
B-----------------3------2---3-3/5-----------------3--3------3----
G------1--------0------2---2------------1--------0----2--------2--
D--------2----0------2--------------------2----0------0-----------
A----2--------------------------------2---------------------------
E--0--------3-----------------------0--------3--------------------

E--3--3--]]
B--3--3--]]
G--0--0--]]
D--2--0--]]
A--3--1--]]
E--------]]


E-----------------------------------------------------------------
B-----------------------------------------------------------------
G---10^12-8--------------10^12-8----8-^12-10--10^12-8-------------
D-----------10-8-----------------10-------------------10-8--------
A----------------10-8-6------------------------------------10-8-6-
E-----------------------------------------------------------------


E-----------------------------------------------------------
B--------------11^13--------------------11-11-11-11-11------
G-10^12-8----8--------7/8-8-8-8-8-------10-10-10-10-10-8-10-
D---------10----------7/8-8-8-8-8--8-7--8--8--8--8--8--8-10-
A-----------------------------------------------------------
E-----------------------------------------------------------

E----------------------------------------]]
B----------------------------------------]]
G-7/8-8-8-8-8-------10^12-8--------------]]
D-7/8-8-8-8-8--8-7----------10-8---------]]
A--------------------------------10-8-6--]]
E----------------------------------------]]


BRIDGE:
E----------------------------------------------------------
B----------------------------------------------------------
G---------------8---------------9---------------8-8--10-10-
D--8-X-X-X-X-X--8-(8)X-X-X-X-X--8-(8)X-X-X-X-X--8-8--10-10-
A--8-X-X-X-X-X--6-(8)X-X-X-X-X--6-(8)X-X-X-X-X--6-6--8--8--
E--6-X-X-X-X-X--6-(6)X-X-X-X-X--6-(6)X-X-X-X-X--6-6--8--8--


E----------------------------------------------------------]]
B----------------------------------------------------------]]
G---------------8---------------9---------------8-8--10-10-]]
D--8-X-X-X-X-X--8-(8)X-X-X-X-X--8-(8)X-X-X-X-X--8-8--10-10-]]
A--8-X-X-X-X-X--6-(8)X-X-X-X-X--6-(8)X-X-X-X-X--6-6--8--8--]]
E--6-X-X-X-X-X--6-(6)X-X-X-X-X--6-(6)X-X-X-X-X--6-6--8--8--]]


CHORUS:
E-----------------------------------------------------------
B--------------------11-11-11-11-11-------------------------
G--7/8-8-8-8-8-------10-10-10-10-10-8-10--7/8-8-8-8-8-------
D--7/8-8-8-8-8--8-7--8--8--8--8--8--8-10--7/8-8-8-8-8--8-7--
A-----------------------------------------------------------
E-----------------------------------------------------------


E--------------------------------------------------------------
B--11-11-11-11-11-------------------------11-11-11-11-11-------
G--10-10-10-10-10-8-10--7/8-8-8-8-8-------10-10-10-10-10-8-10--
D--8--8--8--8--8--8-10--7/8-8-8-8-8--8-7--8--8--8--8--8--8-10--
A--------------------------------------------------------------
E--------------------------------------------------------------


E--------------------
B--------------------
G-7/8-8-8-8-8--------
D-7/8-8-8-8-8--8-7---
A--------------------
E--------------------


LEAD-IN
E-----------------------------------------------------------------
B-----------------------------------------------------------------
G---10^12-8--------------10^12-8----8-^12-10--10^12-8-------------
D-----------10-8-----------------10-------------------10-8--------
A----------------10-8-6------------------------------------10-8-6-
E-----------------------------------------------------------------


E---------------------]]
B--------------11^13--]]
G-10^12-8----8--------]]
D---------10----------]]
A---------------------]]
E---------------------]]


BRIDGE


CHORUS


SOLO(This is my best version of the solo):
E----------------------------------------------------
B----------------------------------------------------
G--11bb13--b13b12-b13b12-b13b12-b13b12-8b9----8b9----
D------------------------------------------11-----11-
A----------------------------------------------------
E----------------------------------------------------


E-------------------------------------------------------------
B--/13b14-b21-21-24-b21b21-b17bb16-19p17-------17----------17-
G----------------------------------------18p16----18p16-16----
D-------------------------------------------------------------
A-------------------------------------------------------------
E-------------------------------------------------------------


E---------------------------------------------------------------------
B-----------17----------------17-------b19-14-------------------------
G--18p16-16----18p16-18p16-16----18p16--------16-13----13-------------
D---------------------------------------------------16----16-14h16p14-
A---------------------------------------------------------------------
E---------------------------------------------------------------------


E-------------------------
B-------------------------
G-------------------------
D-14h16p14h16p14h16p14...-
A-------------------------
E-------------------------


BRIDGE


CHORUS


CHORUS


END CHORUS VARIATION:
E-----------------------------------------------------------
B--------------------11-11-11-11-11-------------------------
G--7/8-8-8-8---------10-10-10-10-10-8-10--7/8-8-8-8-8-------
D--7/8-8-8-8----8-7--8--8--8--8--8--8-10--7/8-8-8-8-8--8-7--
A-----------------------------------------------------------
E-----------------------------------------------------------


E--------------------------------------------------------------
B--11-11-11-11-11-------------------------11-11-11-11-11-------
G--10-10-10-10-10-8-10--7/8-8-8-8-8-------10-10-10-10-10-8-10--
D--8--8--8--8--8--8-10--7/8-8-8-8-8--8-7--8--8--8--8--8--8-10--
A--------------------------------------------------------------
E--------------------------------------------------------------


E-------------------------------------------------
B-------------------------------------------------
G-7/8-8-8-8-8----------------------8~~------------
D-7/8-8-8-8-8--8-7-8-10~~~~-8-9-10----------------
A-------------------------------------------------
E-------------------------------------------------


E-----------------------------------------------------------
B--------------------11-11-11-11-11-------------------------
G--7/8-8-8-8---------10-10-10-10-10-8-10--7/8-8-8-8-8-------
D--7/8-8-8-8----8-7--8--8--8--8--8--8-10--7/8-8-8-8-8--8-7--
A-----------------------------------------------------------
E-----------------------------------------------------------


E--------------------------------------------------------------------
B--11-11-11-11-11-11-11-11-8--------------------11-11-11-11-11-------
G--10-10-10-10-10-10-10-10-8--7/8-8-8-8-8-------10-10-10-10-10-8-10--
D--8--8--8--8--8--8--8--8--8--7/8-8-8-8-8--8-7--8--8--8--8--8--8-10--
A--------------------------------------------------------------------
E--------------------------------------------------------------------


E------------------------------------------------------------------]]]]
B-------------------11--11p8--11p8-11p8-11p8-----------------------]]]]
G-7/8-8-8-8-8-------10--10p8--10p8-10p8-10p8--8--------------------]]]]
D-7/8-8-8-8-8--8-7--8---8-----8----8----8-----8h10p8h10p8h10p8-10--]]]]
A------------------------------------------------------------------]]]]
E------------------------------------------------------------------]]]]


LYRICS::



VERSE 1:(NO GUITAR BACKUP)
Bombarded by philosophies that ....


BRIDGE1:
Won't You take my heart, won't You ....


CHORUS:
So help me ....


LEAD-IN


VERSE 2:(NO GUITAR BACKUP)
Infected by the skin I'm in that's ....


BRIDGE2:
You're there when I call and You're ...


CHORUS


SOLO

BRIDGE1


CHORUS X 2

Almost there ...

Sign in to get your own page with links to favourite songs and more. You are just one click away...

Login with Facebook Login with Google