Log in

One click and you are in

Login with Facebook Login with Google

Why sign up and log in

Guitar Tabs Explorer
Dc Talk tabs for Jesus freak (Ver. 2)

Guitar tabs

INTRO
e|--------------------------------------------------|
b|--------------------------------------------------|
g|--------------------------------------------------|
d|--3-3-3-3--6-6-6-6--8-8-8-6--10-10-10-10----------|
a|--3-3-3-3--6-6-6-6--8-8-8-8--10-10-10-10----------|
A chord diagramE MajorE|--1-1-1-1--4-4-4-4--6-6-6-6--8--8--8--8-----------|
verse

e|--------------------------------------------------|
b|--------------------------------------------------|
g|--------------------6-6-6-6--3-3------------------|
d|--3-3-3-3--6-6-6-6--6-6-6-6--3-3---3--------------|
a|--3-3-3-3--6-6-6-6--4-4-4-4--1-1---3--------------|
A chord diagramE MajorE|--1-1-1-1--4-4-4-4-----------------1--------------|

Rap

e|--------------------------------------------------|
b|--------------------------------------------------|
g|-----------8-8-8-8-----------5-5-5-5--------------|
d|--3-3-3-3--8-8-8-8--6-6-6-6--5-5-5-5--------------|
a|--3-3-3-3--6-6-6-6--6-6-6-6--3-3-3-3--------------|
A chord diagramE MajorE|--1-1-1-1-----------4-4-4-4-----------------------|


Chorus

e|--------------------------------------------------|
b|--------------------------------------------------|
g|--------------------8-8-8-8-----------------------|
d|--3-3-3-3--6-6-6-6--8-8-8-8--8-8--10--------------|
a|--3-3-3-3--6-6-6-6--6-6-6-6--8-8--10--------------|
A chord diagramE MajorE|--1-1-1-1--4-4-4-4-----------6-6--8---------------|

Repeat

Verse

e|--------------------------------------------------|
b|--------------------------------------------------|
g|--------------------6-6-6-6--3-3------------------|
d|--3-3-3-3--6-6-6-6--6-6-6-6--3-3---3--------------|
a|--3-3-3-3--6-6-6-6--4-4-4-4--1-1---3--------------|
A chord diagramE MajorE|--1-1-1-1--4-4-4-4-----------------1--------------|

Rap

e|--------------------------------------------------|
b|--------------------------------------------------|
g|-----------8-8-8-8-----------5-5-5-5--------------|
d|--3-3-3-3--8-8-8-8--6-6-6-6--5-5-5-5--------------|
a|--3-3-3-3--6-6-6-6--6-6-6-6--3-3-3-3--------------|
A chord diagramE MajorE|--1-1-1-1-----------4-4-4-4-----------------------|


Chorus

e|--------------------------------------------------|
b|--------------------------------------------------|
g|--------------------8-8-8-8-----------------------|
d|--3-3-3-3--6-6-6-6--8-8-8-8--8-8--10--------------|
a|--3-3-3-3--6-6-6-6--6-6-6-6--8-8--10--------------|
A chord diagramE MajorE|--1-1-1-1--4-4-4-4-----------6-6--8---------------|


Solo

e|-----------------------------------------15-------|
b|--------------------------------------------14~---|
g|--------------------------------13-13-13----------|
d|-11-11-11-11--------------------------------------|
a|--------------10h11-11-11-11-11-------------------| X4
A chord diagramE MajorE|--------------------------------------------------|


Repeat chorus end with chorus

coments latribudejonathan@yahoo.com
ⓘ This is the 2nd version of guitar tab for 'Jesus Freak' by Dc Talk, a rock band formed in 1987 from Lynchburg, Virginia

Other versions of Jesus Freak

Jesus freakTabs

Almost there ...

Sign in to get your own page with links to favourite songs and more. You are just one click away...

Login with Facebook Login with Google