Log in

One click and you are in

Login with Facebook Login with Google

Why sign up and log in

Guitar Tabs Explorer
The Dbs chords for Black and white

Guitar chords with lyrics

NOTE:
The verse chords in this song may look fancy on paper (A chord diagramBB add 11, etc) but you will find
that all that means is that you keep the A chord diagramBB and high A chord diagramE MajorE strings open while strumming the
normal E-form bar chords of B, A, A chord diagramF# minorF#m to the open E.  You’ll see what I mean if you try
the tab.

Chords used

 A chord diagramBB 	    A chord diagramA augmentedA	    A chord diagramF#m11F#m11      A chord diagramE MajorE    A chord diagramA augmentedA    A chord diagramC# minorC#m    A chord diagramD/F#D/F#
add 11     add 9
e----0------0--------0--------0----5-----4------2----------------------
B----0------0--------0--------0----5-----5------3----------------------
G----8------6--------2--------1----6-----6------2----------------------
D----9------7--------4--------2----7-----6------0----------------------
A----9------7--------4--------2----7-----4------x----------------------
E----7------5--------2--------0----5-----x------2----------------------

Intro Riff
e----------------------------------------------------------------------
B----------------------------------------------------------------------
G-------8---9--8------------9---8----8--9-------9--8--9----9--8----8-9-
D----9-------------9-----7---------7----------7-----------------7------
A-------------------------------------------9------------7-------------
E----------------------------------------------------------------------



INTRO Progression-     A chord diagramBB add 11    A chord diagramA augmentedA add 9    A chord diagramF# minorF#m 11    A chord diagramE MajorE


VERSE 1

A chord diagramBB add 11	     A chord diagramA augmentedA add 9
I …  Never would hurt you

	          A chord diagramF#m11F#m11
And even if I did you.

		    A chord diagramE MajorE
You never would tell me

	                     A chord diagramBB add 11
Ohhhhhhhh, we are finished

            A chord diagramA augmentedA add 9
As of a lifetime ago

            A chord diagramF#m11F#m11
As of a longtime ago

      A chord diagramE MajorE
Oh, Stop..


CHORUS
			A chord diagramBB
I don’t enjoy you anymore


            A chord diagramA augmentedA                         A chord diagramC# minorC#m               A chord diagramBB
Well I guess I just don’t enjoy you anymore

            A chord diagramA augmentedA                         A chord diagramC# minorC#m                   A chord diagramD/F#D/F#     A chord diagramA augmentedA
Well I guess  it’s all laid out in Black and Whiiiiiitie    You don’t like it at all.


VERSE 2

A chord diagramBB add 11	     A chord diagramA augmentedA add 9
Love… love is the answer

	 A chord diagramF#m11F#m11
To what question


 A chord diagramE MajorE				A chord diagramBB add 11
But Thanks for.. ohhhhh the suggestion

               A chord diagramA augmentedA add 9

Oh, no I don’t care at all

			A chord diagramF#m11F#m11
Oh, no I don’t know anything at all

         A chord diagramE MajorE
But I thought


CHORUS


The rest of the song are repeated forms of the VERSE or CHORUS progressions.

The SOLO is over the CHORUS progression.  Here it is..


The solo is great and fun because the high string is open most of the time and your fingers skate all over the b-string while keeping the high-e open, giving it a nice drony effect.  There is one part of the solo that is really difficult to articulate in tab.  Where I have indicated b (17) it means that you bend to the 17th fret WITHOUT striking it until you release it (also called a ghost bend) back to the 15th fret.  Sorry that I can’t really articulate this very well!


SOLO over CHORUS progression


e--0-0--0-0--0-0--0-0--0-0--0-0------0--0-----0--0---------------------
B--2-2--4-4--5-5--7-7--9-9--10-10----12-12----14-14-------—------------
G----------------------------------------------------------------------
D----------------------------------------------------------------------
A----------------------------------------------------------------------
E----------------------------------------------------------------------


e-------12---12----------12------12-------12---12----------12----12---
B----b—(16)—r-14---------b(16)—r-14-------b(16)—r-14-------b(16)—r-14--
G----------------------------------------------------------------------
D----------------------------------------------------------------------
A----------------------------------------------------------------------
E----------------------------------------------------------------------




e----0--0-----0----0------0---0-----0---0------------------------------
B---17-17-----16--16-----14---14---12---12-----------------------------
G----------------------------------------------------------------------
D----------------------------------------------------------------------
A----------------------------------------------------------------------
E----------------------------------------------------------------------

e----0--0-----0----0------0---0-----0---0------------------------------
B---17-17-----16--16-----14---14---12---12-----------------------------
G----------------------------------------------------------------------
D----------------------------------------------------------------------
A----------------------------------------------------------------------
E----------------------------------------------------------------------


e---0---0------0----0--------0----0-------0----0-----------------------
B--15---15----14----14------12----12-----10----10----------------------
G----------------------------------------------------------------------
D----------------------------------------------------------------------
A----------------------------------------------------------------------
E----------------------------------------------------------------------


e---0----0------0----0-------0-----0------0----0-----------------------
B--14---14-----12---12------10----10------8----8-----------------------
G----------------------------------------------------------------------
D----------------------------------------------------------------------
A----------------------------------------------------------------------
E----------------------------------------------------------------------

e---0----0------0----0-------0-----0------0-----0----------------------
B--12---12-----10---10-------8-----8------7-----7----------------------
G----------------------------------------------------------------------
D----------------------------------------------------------------------
A----------------------------------------------------------------------
E----------------------------------------------------------------------

e---0----0------0----0-------0-----0-------0-----0---------------------
B---5----5------4----4-------2-----2-------0-----0---------------------
G----------------------------------------------------------------------
D----------------------------------------------------------------------
A----------------------------------------------------------------------
E----------------------------------------------------------------------


e---0----0------0----0-------0-----0-------0-----0---------------------
B---5----5------4----4-------2-----2-------0-----0---------------------
G----------------------------------------------------------------------
D----------------------------------------------------------------------
A----------------------------------------------------------------------
E----------------------------------------------------------------------

Goes into A/C#m/B (Well I guess I just don’t enjoy you…)

Other versions of Black And White

Black and whiteChords

Almost there ...

Sign in to get your own page with links to favourite songs and more. You are just one click away...

Login with Facebook Login with Google