Log in

One click and you are in

Login with Facebook Login with Google

Why sign up and log in

Guitar Tabs Explorer
Day6 bass tabs for Shoot me

Bass tabs

Tuning: Standard (E A D G)

Difficulty: Novice


Intro:

G|-----------------|
D|-----------------|
A|-11~---10\-3-----|
E|-----------------|

Verse 1:

G|-----------------|
D|-3---------------|
A|-----3---4---3---|  x4
E|-----------------|


Pre chorus:

G|-----------------|
D|-11---12---14~---|
A|-----------------|
E|-----------------|


Chorus:

G|-------------------------------|-----------------------------------|
D|-------------------------------|-----------------------------------|
A|-4---4---4---4-----------------|-1--3---3---3---3------------------|
E|-----------------4---4---4---4-|--------------------1-0-1-3-4-3-1--|

G|-------------------------------|-----------------------------------|
D|-------------------------------|-----------------------------------|
A|-4---4---4---4-----------------|-1--3---3---3---3---3---3---3---3--|
E|-----------------4---4---4---4-|-----------------------------------|

G|-------------------------------|-----------------------------------|
D|-------------------------------|-----------------------------------|
A|-4---4---4---4-----------------|-1--3---3---3---3------------------|
E|-----------------4---4---4---4-|--------------------1-0-1-3-4-3-1--|

G|-------------------------------|-----------------------------------|
D|-------------------------------|-----------------------------------|
A|-4---4---4---4-----------------|--1---1---1---1---3---3---3---3----|
E|-----------------4---4---4---4-|-----------------------------------|

Verse 2:

G|-----------------|
D|-----------------|
A|-11~---10\-3-----|
E|-----------------|

G|-----------------|
D|-3---------------|
A|-----3---4---3---|  x2
E|-----------------|

G|-----------------|
D|-----------------|
A|-----8-8-8-8-----|  x2
E|-1-1---------1-1-|

G|-----------------|
D|-3---------------|
A|-----3---4---3---|
E|-----------------|


Bridge:
(NOTE: first 2 lines of them chanting has no bass.)

G|------------------------|---------------------------|
D|------------------------|---------------------------|
A|------------------------|-4--4--4--4--4--3--3--3--3-|
E|-1--1--1--1-3-4--4--4--4|---------------------------|

G|------------------------|---------------------------|
D|------------------------|---------------------------|
A|------------------------|-1--1--1--1--1--3--3--3--3-|
E|-1--1--1--1-3-4--4--4--4|---------------------------|


************************************

| \  Slide down
| ~  Vibrato

************************************

Almost there ...

Sign in to get your own page with links to favourite songs and more. You are just one click away...

Login with Facebook Login with Google