Log in

One click and you are in

Login with Facebook Login with Google

Why sign up and log in

Guitar Tabs Explorer
Day6 bass tabs for Hunt

Bass tabs

Tuning: Standard (E A D G)


Intro:

Guitar only

Verse 1:

Bass gets in on the 3rd guitar riff

G|----------------------------------------------|
D|----------------------------------------------|
A|--------------------------0-3-4-5-------------|
E|0-3-4-5------0-3-4-5------------------0-3-4-5-|

G|----------------------------------------------|
D|----------------------------------------------|
A|0-5-6-7-7-0-3-4-5-----------------------------|
E|---------------------0-3-4-5---0-0-0-0-0-0-0-0|

G|------------------------------------------------------------------------|
D|------------------------------------------------------------------------|
A|----------------------------------0-3-4-5-5-0-3-4-5-5-------------------|
E|5-5-0-3-4-5-5-0-3-4-5-5-0-3-4-5-5--------------------0-3-4-5-5-0-3-4-5-5|

G|---------------------------------------------------|
D|---------------------------------------------------|
A|0-5-6-7-7-0-3-4-5-3-5-3----------------------------|
E|------------------------0-3-4-5-5-5-0-0-0-0-0-0-0-0|


Pre-Chorus:

from ( ? )...

G|------|
D|------|
A|------|  x2
E|5-----|

G|-------------------------------------------|
D|-------------------------------------------|
A|-------------------------------------------|
E|1/5-5-5-5-5-5-5-5-5-5-5-5-5-5-5-5-5-5-5-5-5|

Baby  ?


Chorus:

G|-----------------------------------------------|
D|-----------------------------------------------|
A|------------------------5-5-5-5-5-5------------|  x4
E|5-5-5-5-5-5-3-3-3-3-3-3-------------3-3-3-3-3-3|


Verse 2:

 ? ?  ? ?  ? ...

G|------------------------------------------------------------------------|
D|------------------------------------------------------------------------|
A|----------------------------------0-3-4-5-5-0-3-4-5-5-------------------|
E|5-5-0-3-4-5-5-0-3-4-5-5-0-3-4-5-5--------------------0-3-4-5-5-0-3-4-5-5|

G|---------------------------------------------------|
D|---------------------------------------------------|
A|0-5-6-7-7-0-3-4-5-3-5-3----------------------------|
E|------------------------0-3-4-5-5-5-0-0-0-0-0-0-0-0|


Pre-Chorus:

from ( ? )...

G|------|
D|------|
A|------|  x2
E|5-----|

G|-------------------------------------------|
D|-------------------------------------------|
A|-------------------------------------------|
E|1/5-5-5-5-5-5-5-5-5-5-5-5-5-5-5-5-5-5-5-5-5|

Baby  ?


Chorus:

G|-----------------------------------------------|
D|-----------------------------------------------|
A|------------------------5-5-5-5-5-5------------|  x4
E|5-5-5-5-5-5-3-3-3-3-3-3-------------3-3-3-3-3-3|


Bridge aka Young K's rap:

No bass, head empty :)


Chorus:

G|-----------------------------------------------|
D|-----------------------------------------------|
A|------------------------5-5-5-5-5-5------------|  x4
E|5-5-5-5-5-5-3-3-3-3-3-3-------------3-3-3-3-3-3|


************************************

| /   Slide up
| ~   Vibrato

************************************

Almost there ...

Sign in to get your own page with links to favourite songs and more. You are just one click away...

Login with Facebook Login with Google