Log in

One click and you are in

Login with Facebook Login with Google

Why sign up and log in

Guitar Tabs Explorer
Day Morris And The Time bass tabs for Jungle love

Jungle Love bass tab - Day Morris And The Time

Day Morris And The Time bass tabs for Jungle love

Bass tabs

Morris Day & The Time - Jungle Love.btab

Basstab by Jan Bjorklund, Finland;
jani_bjorklund@yahoo.se
You are welcome to request for basstabs!
Bienvenidos a pedirme transcripciones para el bajo!

TablEdited by Jan Bjorklund for Rachel

Tuning : E A D G 	Time Signature: 4/4

 |    |    |    |    |    |    |    |
|--------------------------------|--------------------------------|
|------------4-------------------|------------4-------------------|
|4-----6---------6---------------|4-----6---------6---------------|
|--------------------------------|--------------------------------|

 |    |    |    |    |    |    |    |
|--------------------------------|--------------------------------|
|------------4-------------------|--------6---4-------------------|
|4-----6---------6---------------|4-4-6-----------6---------------|
|--------------------------------|--------------------------------|

 |    |    |    |    |    |    |    |
|--------------------------------|--------------------------------|
|------------4-------------------|------------4-------------------|
|4-----6---------6---------------|4-----6---------6---------------|
|--------------------------------|--------------------------------|

 |    |    |    |    |    |    |    |
|--------------------------------|--------------------------------|
|------------4-------------------|--------6---4-------------------|
|4-----6---------6---------------|4-4-6-----------6---------------|
|--------------------------------|--------------------------------|

 |    |    |    |    |    |    |    |
|--------------------------------|--------------------------------|
|-----------------And so it continues until The End---------------|
|--------------------------------|--------------------------------|
|--------------------------------|--------------------------------|

Almost there ...

Sign in to get your own page with links to favourite songs and more. You are just one click away...

Login with Facebook Login with Google