Log in

One click and you are in

Login with Facebook Login with Google

Why sign up and log in

Guitar Tabs Explorer
Dawn Penn bass tabs for You dont love me no no no

You Don't Love Me No No No bass tab by Dawn Penn

Dawn Penn bass tabs for You dont love me no no no

Bass tabs

Tuning: Standard (E A D G)


Intro:

G|--------------------------------------------------------------------|
D|--------------------------------------------------------------------|
A|-5-5-5-5-5-5-5-5-5-5-3---5------5-5-5-5-5-5-5-5-5-5-3---5-----------|
E|--------------------------------------------------------------------|

G|--------------------------------------------------------------------|
D|--------------------------------------------------------------------|
A|-5-5-5-5-5-5-5-5-5-5-3---5-----/-----17---------------------------3-|
E|----------------------------------------------------------------5---|

Verse:

G|-------------------7-7-----------------------7-7-----------------------7-7-----|
D|-----------------------7-------------------------7-------------------------7---|
A|-5---5-5-5-5---5-5---------5---5-5-5-5---5-5---------5---5-5-5-5---5-5---------|
E|-------------5-------------------------5-------------------------5-------------|

G|-------------------------------------------------------------------------------|
D|-------------------7-7-----------------------7-7-----------------------7-7-----|
A|-----------------------7-------------------------7-------------------------7---|
E|-5---5-5-5-5-0-5-5---------5---5-5-5-5-0-5-5---------5---5-5-5-5-0-5-5---------|

G|-------------------7-7-----------------------7-7-----------------------7-7-----|
D|-----------------------7-------------------------7-------------------------7---|
A|-5---5-5-5-5---5-5---------5---5-5-5-5---5-5---------5---5-5-5-5---5-5---------|
E|-------------5-------------------------5-------------------------5-------------|

G|-------------------------------------------------------------------------------|
D|-------------------7-7-----------------------7-7-----------------------7-7-----|
A|-----------------------7-------------------------7-------------------------7---|
E|-5---5-5-5-5-0-5-5---------5---5-5-5-5-0-5-5---------5---5-5-5-5-0-5-5---------|


Chorus:

G|---------------------------------------------9-9-----------------------9-9-----|
D|-------------------7-7---------------------------9-------------------------9---|
A|---------------------------7---7-7-7-7---7-7---------7---7-7-7-7---7-7---------|
E|-5---5-5-5-5-0-5-5-----5---------------7-------------------------7-------------|

G|-------------------7-7-----------------------7-7-----|
D|-----------------------7-------------------------7---|
A|-5---5-5-5-5---5-5---------5---5-5-5-5---5-5---------|
E|-------------5-------------------------5-------------|

G|-----------------------------------------------------|
D|-------------------7-7-----------------------7-7-----|
A|-----------------------7-------------------------7---|
E|-5---5-5-5-5-0-5-5---------5---5-5-5-5-0-5-5---------|

G|-----------------------------------------------------|
D|-------------------7-7-----------------------7-7-----|
A|-----------------------7-------------------------7---|
E|-5---5-5-5-5-0-5-5---------5---5-5-5-5-0-5-5---------|


Verse:

G|-------------------7-7-----------------------7-7-----------------------7-7-----|
D|-----------------------7-------------------------7-------------------------7---|
A|-5---5-5-5-5---5-5---------5---5-5-5-5---5-5---------5---5-5-5-5---5-5---------|
E|-------------5-------------------------5-------------------------5-------------|

G|-------------------------------------------------------------------------------|
D|-------------------7-7-----------------------7-7-----------------------7-7-----|
A|-----------------------7-------------------------7-------------------------7---|
E|-5---5-5-5-5-0-5-5---------5---5-5-5-5-0-5-5---------5---5-5-5-5-0-5-5---------|

G|-------------------7-7-----------------------7-7-----------------------7-7-----|
D|-----------------------7-------------------------7-------------------------7---|
A|-5---5-5-5-5---5-5---------5---5-5-5-5---5-5---------5---5-5-5-5---5-5---------|
E|-------------5-------------------------5-------------------------5-------------|

G|-------------------------------------------------------------------------------|
D|-------------------7-7-----------------------7-7-----------------------7-7-----|
A|-----------------------7-------------------------7-------------------------7---|
E|-5---5-5-5-5-0-5-5---------5---5-5-5-5-0-5-5---------5---5-5-5-5-0-5-5---------|


Chorus:

G|---------------------------------------------9-9-----------------------9-9-----|
D|-------------------7-7---------------------------9-------------------------9---|
A|---------------------------7---7-7-7-7---7-7---------7---7-7-7-7---7-7---------|
E|-5---5-5-5-5-0-5-5-----5---------------7-------------------------7-------------|

G|-------------------7-7-----------------------7-7-----|
D|-----------------------7-------------------------7---|
A|-5---5-5-5-5---5-5---------5---5-5-5-5---5-5---------|
E|-------------5-------------------------5-------------|

G|-----------------------------------------------------|
D|-------------------7-7-----------------------7-7-----|
A|-----------------------7-------------------------7---|
E|-5---5-5-5-5-0-5-5---------5---5-5-5-5-0-5-5---------|

G|-----------------------------------------------------|
D|-------------------7-7-----------------------7-7-----|
A|-----------------------7-------------------------7---|
E|-5---5-5-5-5-0-5-5---------5---5-5-5-5-0-5-5---------|


Trumpet Bit:

G|-------7-7---------7---------7-7---------7---|
D|---------------------------------------------|
A|---5-5---------5-5-------5-5---------5-5-----|
E|-5-----------5---------5-----------5---------|

G|---------------------------------------------|
D|-------7-7---------7---------7-7---------7---|
A|---------------------------------------------|
E|-0-5-5-------0-5-5-----0-5-5-------0-5-5-----|

G|-------7-7---------7---------7-7---------7---|
D|---------------------------------------------|
A|---5-5---------5-5-------5-5---------5-5-----|
E|-5-----------5---------5-----------5---------|

G|---------------------------------------------|
D|-------7-7---------7---------7-7---------7---|
A|---------------------------------------------|
E|-0-5-5-------0-5-5-----0-5-5-------0-5-5-----|


Verse: (fade out)

G|-------------------7-7-----------------------7-7-----------------------7-7-----|
D|-----------------------7-------------------------7-------------------------7---|
A|-5---5-5-5-5---5-5---------5---5-5-5-5---5-5---------5---5-5-5-5---5-5---------|
E|-------------5-------------------------5-------------------------5-------------|

G|-------------------------------------------------------------------------------|
D|-------------------7-7-----------------------7-7-----------------------7-7-----|
A|-----------------------7-------------------------7-------------------------7---|
E|-5---5-5-5-5-0-5-5---------5---5-5-5-5-0-5-5---------5---5-5-5-5-0-5-5---------|

G|-------------------7-7-----------------------7-7-----------------------7-7-----|
D|-----------------------7-------------------------7-------------------------7---|
A|-5---5-5-5-5---5-5---------5---5-5-5-5---5-5---------5---5-5-5-5---5-5---------|
E|-------------5-------------------------5-------------------------5-------------|

G|-------------------------------------------------------------------------------|
D|-------------------7-7-----------------------7-7-----------------------7-7-----|
A|-----------------------7-------------------------7-------------------------7---|
E|-5---5-5-5-5-0-5-5---------5---5-5-5-5-0-5-5---------5---5-5-5-5-0-5-5---------|


************************************

| /  Slide up

************************************
ⓘ Bass guitar tab for 'You Dont Love Me No No No' by Dawn Penn, a female reggae artist from Kingston, Jamaica. Dawn Penn was born in 1952.

Almost there ...

Sign in to get your own page with links to favourite songs and more. You are just one click away...

Login with Facebook Login with Google