Log in

One click and you are in

Login with Facebook Login with Google

Why sign up and log in

Guitar Tabs Explorer
Davis Spencer Group bass tabs for Somebody help me

Somebody Help Me bass tab - Davis Spencer Group

Davis Spencer Group bass tabs for Somebody help me

Bass tabs

Somebody Help Me.btab
Spencer Davis Group
TablEdited by Poppamies for Max

Tuning : E A D G 	Time Signature: 4/4

 tempo136|    |    |    |    |    |    |
|--------------------------------|--------------------------------|
|--------------------------------|--------------------------------|
|3-------3-------3-------3-------|1-------1-------1-------1-------|
|--------------------3-------3---|--------------------1-------1---|

 |    |    |    |    |    |    |    |
|--------------------------------|--------------------------------|
|--------------------------------|--------------------------------|
|3-------3-------3-------3-------|1-------1-------1-------1-------|
|--------------------3-------3---|--------------------1-------1---|

 |    |    |    |    |    |    |    |
|--------------------------------|--------------------------------|
|--------------------------------|--------------------------------|
|3-------3-------3-------3-------|------------------------1-------|
|--------------------3-------3---|1-------1-------3---3-------3---|

 |    |    |    |    |    |    |    |
|--------------------------------|--------------------------------|
|--------------------------------|--------------------------------|
|3-------3-------3-------3-------|------------------------1-------|
|--------------------3-------3---|1-------1-------3---3-------3---|

 |    |    |    |    |    |    |    |
|--------------------------------|--------------------------------|
|--------------------------------|--------------------------------|
|3-------3-------3-------3-------|1-----------1-------------------|
|--------------------3-------3---|----------------1---1---1---3---|

 |    |    |    |    |    |    |    |
|--------------------------------|--------------------------------|
|--------------------------------|--------------------------------|
|--------------------------------|--------------------------------|
|3---------------------------3---|1---------------------------1---|

 |    |    |    |    |    |    |    |
|--------------------------------|--------------------------------|
|--------------------------------|--------------------------------|
|3-------3-------3-------3-------|1-------1-------1-------1-------|
|--------------------3-------3---|--------------------1-------1---|

 |    |    |    |    |    |    |    |
|--------------------------------|--------------------------------|
|--------------------------------|--------------------------------|
|3-------3-------3-------3-------|1-------1-------1-------1-------|
|--------------------3-------3---|--------------------1-------1---|

 |    |    |    |    |    |    |    |
|--------------------------------|--------------------------------|
|--------------------------------|--------------------------------|
|3-------3-------3-------3-------|1-------1-------1-------1-------|
|--------------------3-------3---|--------------------1-------1---|

 |    |    |    |    |    |    |    |
|--------------------------------|--------------------------------|
|--------------------------------|--------------------------------|
|--------------------------------|----------------------------1h--|
|3-----------3---3-----------3---|1-----------1---1---------------|

 |    |    |    |    |    |    |    |
|--------------------------------|--------------------------------|
|--------------------------------|--------------------------------|
|3-------3-------3-------3-------|1-------1-------1-------1-------|
|--------------------3-------3---|--------------------1-------1---|

 |    |    |    |    |    |    |    |
|--------------------------------|--------------------------------|
|--------------------------------|--------------------------------|
|3-------3-------3-------3-------|1-------1-------1-------1-------|
|--------------------3-------3---|--------------------1-------1---|

 |    |    |    |    |    |    |    |
|--------------------------------|--------------------------------|
|--------------------------------|--------------------------------|
|3-------3-------3-------3-------|1-------1-------1-------1-------|
|--------------------3-------3---|--------------------1-------1---|

 |    |    |    |    |    |    |    |
|--------------------------------|--------------------------------|
|--------------------------------|--------------------------------|
|--------------------------------|--------------------------------|
|3-----------3---3-----------3---|1-----------1---1-----------1---|

 |    |    |    |    |    |    |    |
|--------------------------------|--------------------------------|
|--------------------------------|--------------------------------|
|3-------3-------3-------3-------|------------------------1-------|
|--------------------3-------3---|1-------1-------3---3-------3---|

 |    |    |    |    |    |    |    |
|--------------------------------|--------------------------------|
|--------------------------------|--------------------------------|
|3-------3-------3-------3-------|------------------------1-------|
|--------------------3-------3---|1-------1-------3---3-------3---|

 |    |    |    |    |    |    |    |
|--------------------------------|--------------------------------|
|--------------------------------|--------------------------------|
|3-------3-------3-------3-------|1-----------1-------------------|
|--------------------3-------3---|----------------1-----------2---|

 |    |    |    |    |    |    |    |
|--------------------------------|--------------------------------|
|--------------------------------|--------------------------------|
|--------------------------------|--------------------------------|
|3-----------3---3-----------3---|3-----------3---3-----------3---|

 |    |    |    |    |    |    |    |
|--------------------------------|--------------------------------|
|--------------------------------|--------------------------------|
|--------------------------------|--------------------------------|
|1-----------1---1---------------|3-----------3---3---3-------4---|

 |    |    |    |    |    |    |    |
|--------------------------------|--------------------------------|
|--------------------------------|--------------------------------|
|0-----------0---0---------------|0-----------0---0---0---0-------|
|--------------------------------|--------------------------------|

 |    |    |    |    |    |    |    |
|--------------------------------|--------------------------------|
|--------------------------------|--------------------------------|
|1-----------1---1---------------|1-----------1---1-----------1---|
|--------------------------------|--------------------------------|

 |    |    |    |    |    |    |    |
|--------------------------------|--------------------------------|
|--------------------------------|--------------------------------|
|--------------------------------|--------------------------------|
|3---3---3---3---3---3---3---3---|3---3---3---3---3---3---3---3---|

 |    |    |    |    |    |    |    |
|--------------------------------|--------------------------------|
|--------------------------------|--------------------------------|
|--------------------------------|3-------3-------3-------3-------|
|3---3---3---3---3---3---3---3---|--------------------3-------3---|

 |    |    |    |    |    |    |    |
|--------------------------------|--------------------------------|
|--------------------------------|--------------------------------|
|------------------------1-------|3-------3-------3-------3-------|
|1-------1-------3---3-------3---|--------------------3-------3---|

 |    |    |    |
|--------------------------------|
|------------and so on...--------|
|------------------------1-------|
|1-------1-------3---3-------3---|

http://www.geocities.com/jani_bjorklund/janis.html

Almost there ...

Sign in to get your own page with links to favourite songs and more. You are just one click away...

Login with Facebook Login with Google