Log in

One click and you are in

Login with Facebook Login with Google

Why sign up and log in

Guitar Tabs Explorer
Davis Spencer Group bass tabs for Gimme some lovin

Gimme Some Lovin bass tab - Davis Spencer Group

Davis Spencer Group bass tabs for Gimme some lovin

Bass tabs

DATE: June 30, 2002
FROM: gary22fret@yahoo.com
WEBSITE: http://listen.to/kentmusic
SUBJECT: Spencer Davis Group - Gimme Some Lovin' (BASS
TAB)
NOTES: This is how we played it in my old band. (Randy
Magik)

Verse:
G--------------
D-5-5-5-5-5----
A--------------
E------------3- (repeat)


Pre Chorus:
G---------------------------------------------------------
D---------------------------------------------------------
A-----------------------------3--3-3-3-3-3--6--6-6-6-6-6\-
E-3--3-3-3-3-3--6--6-6-6-6-6------------------------------


Chorus:
G----------------------------
D----------------------------
A---------------3--3-3-3-3-3-
E-3--3-3-3-3-3--------------- (repeat)

Almost there ...

Sign in to get your own page with links to favourite songs and more. You are just one click away...

Login with Facebook Login with Google