Log in

One click and you are in

Login with Facebook Login with Google

Why sign up and log in

Guitar Tabs Explorer
Skeeter Davis bass tabs for Fly me to the moon

Fly Me To The Moon bass tab by Skeeter Davis

Skeeter Davis bass tabs for Fly me to the moon

Bass tabs

Tuning: Standard (E A D G)

Difficulty: Novice


Tuning: EADG

G|----------------------------------------------------------------|
D|5---------------5-----------------------------------------------|
A|--------------------------------3---------------3---------------|
E|----------------------------------------------------------------|

G|----------------------------------------------------------------|
D|3---------------3-----------------------------------------------|
A|--------------------------------1---------------1---------------|
E|----------------------------------------------------------------|

G|----------------------------------------------------------------|
D|1---------------1-----------------------------------------------|
A|--------------------------------0---------------0---------------|
E|----------------------------------------------------------------|

G|----------------------------------------------------------------|
D|--------------------------------5---------------5---------------|
A|5---------------5-----------------------------------------------|
E|----------------------------------------------------------------|

0:19

G|----------------------------------------------------------------|
D|--------------------------------3---------------3---------------|
A|3---------------3-----------------------------------------------|
E|----------------------------------------------------------------|

G|----------------------------------------------------------------|
D|----------------3-----------------------------------------------|
A|1-------------------------------1---------------1-------2-------|
E|----------------------------------------------------------------|

G|----------------------------------------------------------------|
D|--------------------------------3---------------3---------------|
A|3---------------3-----------------------------------------------|
E|----------------------------------------------------------------|

G|----------------------------------------------------------------|
D|1---------------------------------------------------------------|
A|--------1---------------1-------3-------5---------------5-------|
E|----------------------------------------------------------------|

0:37

G|----------------------------------------------------------------|
D|5---------------5-----------------------------------------------|
A|--------------------------------3---------------3---------------|
E|----------------------------------------------------------------|

G|----------------------------------------------------------------|
D|3---------------3-----------------------------------------------|
A|--------------------------------1---------------1---------------|
E|----------------------------------------------------------------|

G|----------------------------------------------------------------|
D|1---------------1-----------------------------------------------|
A|--------------------------------0---------------0---------------|
E|----------------------------------------------------------------|

G|----------------------------------------------------------------|
D|--------------------------------5---------------5---------------|
A|5---------------5-----------------------------------------------|
E|----------------------------------------------------------------|

0:55

G|----------------------------------------------------------------|
D|--------------------------------3---------------3---------------|
A|3---------------3-----------------------------------------------|
E|----------------------------------------------------------------|

G|----------------------------------------------------------------|
D|3---------------3-------6-------5---------------5---------------|
A|----------------------------------------------------------------|
E|----------------------------------------------------------------|

G|----------------------------------------------------------------|
D|--------------------------------3---------------3---------------|
A|3---------------3-----------------------------------------------|
E|----------------------------------------------------------------|

G|----------------------------------------------------------------|
D|----------------3-----------------------------------------------|
A|1-----------------------1-------5---------------5---------------|
E|----------------------------------------------------------------|

1:13

G|----------------------------------------------------------------|
D|5---------------5-----------------------------------------------|
A|--------------------------------3---------------3---------------|
E|----------------------------------------------------------------|

G|----------------------------------------------------------------|
D|3---------------3-----------------------------------------------|
A|--------------------------------1---------------1---------------|
E|----------------------------------------------------------------|

G|----------------------------------------------------------------|
D|1---------------1-----------------------------------------------|
A|--------------------------------0---------------0---------------|
E|----------------------------------------------------------------|

G|----------------------------------------------------------------|
D|--------------------------------5---------------5---------------|
A|5---------------5-----------------------------------------------|
E|----------------------------------------------------------------|

1:31

G|----------------------------------------------------------------|
D|--------------------------------3---------------3---------------|
A|3---------------3-----------------------------------------------|
E|----------------------------------------------------------------|

G|----------------------------------------------------------------|
D|3---------------6-------3-------5---------------5---------------|
A|----------------------------------------------------------------|
E|----------------------------------------------------------------|

G|----------------------------------------------------------------|
D|--------------------------------3---------------3---------------|
A|3---------------3-----------------------------------------------|
E|----------------------------------------------------------------|

G|------------------------------------|
D|----------------5---3---1---0-------|
A|1-------------------------------3---|
E|------------------------------------|

Almost there ...

Sign in to get your own page with links to favourite songs and more. You are just one click away...

Login with Facebook Login with Google