Log in

One click and you are in

Login with Facebook Login with Google

Why sign up and log in

Guitar Tabs Explorer
Davie504 bass tabs for S l a p p

Bass tabs

Tuning: Standard (E A D G)

G|-----------------7----------------------5*-----5*--------------------------|
D|--------------6-------------7-5--------------------------------------------|
A|-8-8---5-6\7---------7---------------------3-------------------------------|
E|-------------------------5--------5--3-------------------------------------|
G|-----------------7--------------------------7/4----------------------------|
D|--------------6-------------7-5------7-9-10-----5\7------------------------|
A|-8-8---5-6\7---------7-----------------------------------------------------|
E|-------------------------5--------5----------------------------------------|

G|-------9---------7----------------------5*-----5*--------------------------|
D|----7---------6------------------------------------------------------------|
A|-8-------8/7----------------7-5------------3-------------------------------|
E|-------------------------5--------5--3-------------------------------------|

G|-------9-------9-----------7--------7--------------------------------------|
D|----7-------7-----------6--------6-----------------------------------------|
A|-8-------8--------8--7--------7--------7s--12s---0s/-----------------------|
E|---------------------------------------------------------------------------|

G|---------------------------------------------------------------------------|
D|-10-11---------------------------------------------------------------------|
A|-------10-12\14------------------------------------------------------------|
E|---------------------------------------------------------------------------|

G|---------------------------------------------------------------------------|
D|---------------------------------------------------------------------------|
A|---------------------------------------------------------------------------|
E|---------------------------------------------------------------------------|

G|---------------------------------------------------------------------------|
D|---------------------------------------------------------------------------|
A|---------------------------------------------------------------------------|
E|---------------------------------------------------------------------------|


************************************

| * Natural harmonic
| \ Slide down
| / Slide up

************************************

Almost there ...

Sign in to get your own page with links to favourite songs and more. You are just one click away...

Login with Facebook Login with Google