Log in

One click and you are in

Login with Facebook Login with Google

Why sign up and log in

Guitar Tabs Explorer
Datsuns tabs for Mf from hell

Guitar tabs

e----------------------
b----------------------
g-6-------------------6
d-6-------------------6  INTRO 6x
a-4-------2-------2---4
e--0-2-3-4-0-2-3-4-3-2-
    Palm Muted
e-------------------
b-------------------
g-6-6666666666-----6
d-6-6666666666-----6     VERSE 4x
a-4-4444444444-2---4
e---------------3-2-

e----------------------
b----------------------
g-6-------------------6
d-6-------------------6  CHORUS 4x
a-4-------2-------2---4
e--0-2-3-4-0-2-3-4-3-2-

 Palm Muted
e-------------------
b-------------------
g-6-6666666666-----6
d-6-6666666666-----6     VERSE 4x
a-4-4444444444-2---4
e---------------3-2-

e----------------------
b----------------------
g-6-------------------6
d-6-------------------6  CHORUS 4x
a-4-------2-------2---4
e--0-2-3-4-0-2-3-4-----

e----------------------------
b----------------------------
g-------------4-------------6
d-2-----------4-------------6
a-2-----------2-------------4
e-0--------------------------

Almost there ...

Sign in to get your own page with links to favourite songs and more. You are just one click away...

Login with Facebook Login with Google